Song name
# A B C D E F G H I J K L M N O P Q R S T U V W X Y Z

Misc Unsigned Bands - Quote The Raven - The Beginning Of The End tab

                 The Beginning of the End                   


                                             Quote the Raven
Tabbed by: Kyle Lester (It's my band)

Duration Legend
---------------
W - whole
H - half
Q - quarter
E - 8th
S - 16th
T - 32nd
X - 64th
. - note dotted
|-n-|  - n-tuplets


Tablature Legend
----------------
L - tied note
x - dead note
g - grace note
(n) - ghost note
> - accentuded note
NH - natural harmonic
AH - artificial harmonic
TH - tapped harmonic
SH - semi harmonic
PH - pitch harmonic
h - hammer on
p - pull off
b - bend
br - bendRelease
pb - preBend
pbr - preBendRelease
brb - bendReleaseBend
\n/ - tremolo bar dip
\n - tremolo bar dive
-/n - tremolo bar Release up
/n\ - tremolo bar inverted dip
/n - tremolo bar return
-\n - tremolo bar Release down
S - shift slide
s - legato slide
/ -  slide into from below or out of upwards
\ -  slide into from above or out of downwards
~ - vibrato
W - wide vibrato
tr - trill
TP - tremolo picking
T - tapping
S - slap
P - pop
< - fade in
^ - brush up
v - brush down



                                     W                 
E||-------|-------|-------|-------|-------------------|
B||-------|-------|-------|-------|-------------------|
G||-------|-------|-------|-------|-------------------|
D||-------|-------|-------|-------|-------------------|
A||-------|-------|-------|-------|--3----------------|
D||-------|-------|-------|-------|-------------------|


  W                   H        H         
-------------------|--------------------|
-------------------|--------------------|
-------------------|-----------5--------|
-------------------|--------------------|
--L----------------|--L-----------------|
-------------------|--------------------|


  E  S  S S  S  E   E   S  S  S S  E   
--------------------------------------|
--------------------------------------|
----------8----10---------10-12-L-10--|
--8--8-10---10-----10--12-------------|
--8----------------10-----------------|
--8----------------10-----------------|


   E   S  S  S  S  S  S  S   S  S  S  S   S  E   
------------------------------------------------|
------------15-13----13-------------------------|
------------------14----14s-12-12-12-12s-10-----|
--12--12-12---------------------------------12--|
--12--12-12-------------------------------------|
--12--12-12-------------------------------------|


  E  S  S S  S  E   E   S  S  S S  E   
--------------------------------------|
--------------------------------------|
----------8----10---------10-12-L-10--|
--8--8-10---10-----10--12-------------|
--8----------------10-----------------|
--8----------------10-----------------|


   E   S  S  S  S  S  S  S   S  S  S  S   S  E   
------------------------------------------------|
------------15-13----13-------------------------|
------------------14----14s-12-12-12-12s-10-----|
--12--12-12---------------------------------12--|
--12--12-12-------------------------------------|
--12--12-12-------------------------------------|


  E  S  S S  S  E   E   S  S  S S  E   
--------------------------------------|
--------------------------------------|
----------8----10---------10-12-L-10--|
--8--8-10---10-----10--12-------------|
--8----------------10-----------------|
--8----------------10-----------------|


   E   S  S  S  S  S  S  S   S  S  S  S   S  E   
------------------------------------------------|
------------15-13----13-------------------------|
------------------14----14s-12-12-12-12s-10-----|
--12--12-12---------------------------------12--|
--12--12-12-------------------------------------|
--12--12-12-------------------------------------|


  E  S  S S  S  E   E   S  S  S S  E   
--------------------------------------|
--------------------------------------|
----------8----10---------10-12-L-10--|
--8--8-10---10-----10--12-------------|
--8----------------10-----------------|
--8----------------10-----------------|


   E   S  S  S  S  S  S  S   S  S  S  S   S  E              
------------------------------------------------|----|-----|
------------15-13----13-------------------------|----|-----|
------------------14----14s-12-12-12-12s-10-----|----|-----|
--12--12-12---------------------------------12--|----|-----|
--12--12-12-------------------------------------|----|-----|
--12--12-12-------------------------------------|----|-----|


-----|-----|-----|-----||------|------||
-----|-----|-----|-----||------|------||
-----|-----|-----|-----||*-----|-----*||
-----|-----|-----|-----||*-----|-----*||
-----|-----|-----|-----||------|------||
-----|-----|-----|-----||------|------||


   E  E   E   S  S E  E   E   S  S  
-----------------------------------|
-----------------------------------|
*----------------------------------|
*--0--0--12--12-12-0--0--12--12-12-|
---0--0--12--12-12-0--0--12--12-12-|
---0--0--12--12-12-0--0--12--12-12-|


  E  E  E  S S E  E  S E.  S S E   4x                  
-----------------------------------||-----|-----|-----|
-----------------------------------||-----|-----|-----|
----------------------------------*||-----|-----|-----|
--3--3--3--3-3-5--5--6-5---3-0-3--*||-----|-----|-----|
--3--3--3--3-3-5--5--6-5---3-0-3---||-----|-----|-----|
--3--3--3--3-3-5--5--6-5---3-0-3---||-----|-----|-----|


-----|-----|-----|-----|-----|
-----|-----|-----|-----|-----|
-----|-----|-----|-----|-----|
-----|-----|-----|-----|-----|
-----|-----|-----|-----|-----|
-----|-----|-----|-----|-----|


   S  S  S  S  S  S  S  S  S  S  S  S  S  S  E   
--------15-------15-------15-------15-------15--|
--15b-L----15b-L----15b-L----15b-L----15b-L-----|
------------------------------------------------|
------------------------------------------------|
------------------------------------------------|
------------------------------------------------|


          |--3--|  |------5-----|        |--3--|            
   S   S  S  S  S  S  S  S  S   S  S  S  S  S  S  S   S  S  
--15b-15-13-15-13----13---------------------------------10--
------------------15----15-13br-L--------------------10----1
----------------------------------------10-12-10-12b--------
----------------------------------10-12---------------------
------------------------------------------------------------
------------------------------------------------------------


   E   E  E   S  S  S  S  S  S  S  S  S  S  
-------------13-12----13-12----13-12----12-|
--13b--L--L--------13-------13-------13----|
-------------------------------------------|
-------------------------------------------|
-------------------------------------------|
-------------------------------------------|


   H          H          
--15b--------15~--------|
------------------------|
------------------------|
------------------------|
------------------------|
------------------------|


   |--6--|  |--6--|  |--6--|  |--6--|                       
   S  S  S  S  S  S  S  S  S  S  S  S  S   S  S  S E   S  S 
--13-15-13----------13-15-13----------15b-15-13-------------
-----------13-15-13----------13-15-13-----------15----------
------------------------------------------------------12-14-
------------------------------------------------------------
------------------------------------------------------------
------------------------------------------------------------


   |--3--|         |--3--|                               
   S  S  S  S   S  S  S  S  S  S  S  S  S  S  S  S  E    
--------------------------------------------------------|
--13-15-13-----------------------------10-------10------|
-----------14s-12----------------12b-L----12b-L----12b--|
------------------15-14-12-14-15------------------------|
--------------------------------------------------------|
--------------------------------------------------------|


   H           Q     Q     
--------------------------|
--10~---------------------|
--12b~--------12----14----|
--------------------------|
--------------------------|
--------------------------|


   S   S  S  S  S   S  S  S  S   S  S  S  S   S  S  S  
---------10-----------10-----------10-----------10----|
------10----10-----10----10-----10----10-----10----10-|
--12b----------12b----------12b----------12b----------|
------------------------------------------------------|
------------------------------------------------------|
------------------------------------------------------|


   W                  
--10-----------------|
--13b----------------|
---------------------|
---------------------|
---------------------|
---------------------|


   |---3---|                 |--3--|                        
   S    S  S  S  S  S  S  S  S  S  S  S  S  S   S  S  S   S 
------------------------------------------------------------
--13br--L-10-----------------------------------10-13--------
-------------12-10----------10-12-10----10-12b-------12b-12-
-------------------12-10-12----------12---------------------
------------------------------------------------------------
------------------------------------------------------------


   S  S  S  S E   S  S  S  S  S  S  S  S  S  S  
-----------------------------------------------|
-----------------------------------------------|
--10-------------------------------12-10-10-12-|
-----12--L--L-------------10-12-10-------------|
-----------------10-12-10----------------------|
-----------------------------------------------|


   E   E   S  S  E    E   S  S  E   E   
-------------------------10-13-10--10--|
------10--13-10-10s--13----------------|
--12-----------------------------------|
---------------------------------------|
---------------------------------------|
---------------------------------------|


   S  S    E    H.                
--13-10-<>13b---Lpbr~------------|
---------------------------------|
---------------------------------|
---------------------------------|
---------------------------------|
---------------------------------|


   |---6---|  |--6--|  |---6---|  |--6--|                   
   S    S  S  S  S  S  S    S  S  S  S  S  S  S   E   E   E 
--17br--L-15----------17br--L-15----------17-18s-22--22--22-
-------------17-15-17------------17-15-17-------------------
------------------------------------------------------------
------------------------------------------------------------
------------------------------------------------------------
------------------------------------------------------------


    E   E   S  S  S  S  S  S  S  S  S  S  E   
--/24--24--24-24-24-24-24-24-22----24-22-----|
--------------------------------22-------24--|
---------------------------------------------|
---------------------------------------------|
---------------------------------------------|
---------------------------------------------|


   W                     W                 
---------------------|--------------------|
--24b----------------|--------------------|
---------------------|--------------------|
---------------------|--12----------------|
---------------------|--12----------------|
---------------------|--12----------------|


   W                                     
--------------------|-------------------|
--------------------|-------------------|
--------------------|-------------------|
---L----------------|-------------------|
---L----------------|-------------------|
---L----------------|-------------------|


-------------------|-------------------||
-------------------|-------------------||
-------------------|-------------------||
-------------------|-------------------||
-------------------|-------------------||
-------------------|-------------------||




Tap to rate this tab
 
# A B C D E F G H I J K L M N O P Q R S T U V W X Y Z