Song name
# A B C D E F G H I J K L M N O P Q R S T U V W X Y Z

Misc Unsigned Bands - Radio Flyer - Confused tab

Intro:
e|---------------------------|
B|---------4------------3----|
G|------------5------------3-|
D|------5------------3-------|x2
A|---3------------1----------|
E|---------------------------|

Verse:
e|---------------------------|
B|---------4------------3----|
G|------------5------------3-|
D|------5------------3-------|x3
A|---3------------1----------|
E|---------------------------|

Verse (continued):
e|-------------------------3-|
B|---------4---------------3-|
G|------------5---------4----|
D|---------------------------|
A|------6------------5-------|
E|---4------------3----------|

Chorus:
e|--3--3-3--3-3--3--3-3--3-3--4--4-4--4-4--3--3-3--3-3-|
B|--4--4-4--4-4--3--3-3--3-3--4--4-4--4-4--3--3-3--3-3-|
G|--5--5-5--5-5--3--3-3--3-3--5--5-5--5-5--4--4-4--4-4-|
D|--5--5-5--5-5--3--3-3--3-3--6--6-6--6-6--5--5-5--5-5-|x3
A|--3--3-3--3-3--1--1-1--1-1--6--6-6--6-6--5--5-5--5-5-|
E|----------------------------4--4-4--4-4--3--3-3--3-3-|

Chorus (continued):
e|--3--3-3--3-3--3--3-3--3-3--4--4-4--4-4--3--3-3--3--3~-|
B|--4--4-4--4-4--3--3-3--3-3--4--4-4--4-4--3--3-3--3--3~-|
G|--5--5-5--5-5--3--3-3--3-3--5--5-5--5-5--4--4-4--4--4~-|
D|--5--5-5--5-5--3--3-3--3-3--6--6-6--6-6--5--5-5--5--5~-|
A|--3--3-3--3-3--1--1-1--1-1--6--6-6--6-6--5--5-5--5--5~-|
E|----------------------------4--4-4--4-4--3--3-3--3--3~-|

Solo: Same as chorus, but without vocals.


www.thisisradioflyer.20m.com 



Tap to rate this tab
 
# A B C D E F G H I J K L M N O P Q R S T U V W X Y Z