Song name
# A B C D E F G H I J K L M N O P Q R S T U V W X Y Z

Misc Unsigned Bands - Blinded Mind - Wasteland Of Bodies tab

PM:Palm Mute
s:squeal
b:bend
br:bend 'n' release
/:slide in
\:slide out

intro guitar 1
E|----------------------------------------------------------|
B|----------------------------------------------------------|
G|-10-10/12-12\9-9---7-7---9-10-----------------------------|
D|--x--x--x--x-x-x---x-x---x--x--repeat-5-times-from-there--|
A|--8--8/10-10\7-7---5-5---7--8-----------------------------|
D|----------------------------------------------------------|
guitar 2
E|------------------------------|
B|------------------------------|
G|------------------------------|
D|-00-00-00-00-0-0-0-0-0-1-0-00-|
A|-00-00-00-00-0-0-0-0-0-1-0-00-|
D|-00-00-00-00-0-0-0-0-0-1-0-00-|
PM -- -- -- -- - -   - -   - --

pre-verse rythem guitar
E|---------------------------------------|
B|--------------X4-----------------------|
G|---------------------------------------|
D|-0-00--0-00--0-00-0--0-00-0000-00-1----|
A|-0-00--0-00--0-00-0--0-00-0000-00-1----|
D|-0-00--0-00--0-00-0--0-00-0000-00-1----|
PM - --  - --  - --    - -- ---- --
lead guitar
E|--------------x4----------------------------------|
B|--------------------------------------------------|
G|-/10-8-10-11-5-7---7-/10\3~5---7*squeal*----------|
D|-----------------8-----------7--------------------|
A|--------------------------------------------------|
D|--------------------------------------------------|

verse both guitars
E|-------------------------------|
B|---------x8--------------------|
G|-------------------------------|
D|-1--3-0-3-5-6-0-0000-0000-6-5-3-|
A|-1--3-0-3-5-6-0-0000-0000-6-5-3-|
D|-1--3-0-3-5-6-0-0000-0000-6-5-3-|
PM                ---- ----
Pre-Chorus rythem guitar
E|--------------------------------|
B|------x2------------------------|
G|--------------------------------|
D|-3---5---6---9--00000000--0~~~--|
A|-5---6---8--10--00000000--0~~~--|
D|----------------00000000--0~~~--|
PM                --------
Lead guitar
E|-------------x2------------------------|
B|-/11--8h10-13---------------13br13br---|
G|--------------12--12--15p14------------|
D|---------------------------------------|
A|---------------------------------------|
D|---------------------------------------|

chorus rythem guitar
E|---------------------------------------------------------|
B|--------------------------x5-----------------------------|
G|---------------------------------------------------------|
D|-2-2-00--0-0-00--5-5-00-7-7-5-88888888-0-22222222--------|
A|-2-2-00--0-0-00--3-3-00-5-5-5-66666666-0-33333333--------|
D|-2-2-00--0-0-00------00-----5-55555555-0-22222222--------|
PM     --      --      --                                
lead guitar
E|-21-17--21-17--21-17--19-15----19-15----19-15----19-15--19-15-----------|
B|------19-----19-----19-----17-------17-------17-------17-----17br17br17b|
G|-----------------------------16-------16-------16----------------------|x5
D|------------------------------------------------------------------------|
A|------------------------------------------------------------------------|
D|------------------------------------------------------------------------|

post-chorus rythem guitar
E|-------------------------------------------------------------|
B|--10h12h13-------13-12--10-----------------------13-10--12b\r|
G|-----------13-12-----------12-10-----------12-10-------------|x2
D|---------------------------------13-10--12-------------------|
A|-------------------------------------------------------------|
D|-------------------------------------------------------------|
lead guitar
E|--12h14h15-------15-14--12-----------------------15-12--14b\r|
B|-----------15-14-----------14-12-----------14-12-------------|x2
G|---------------------------------15-12--14-------------------|
D|-------------------------------------------------------------|
A|-------------------------------------------------------------|
D|-------------------------------------------------------------|
the b\r that means bend and slide out while releasing






Solo twin guitars (rythem guitar)                 |sweep picking x2
E|------------------------------------------------|-12-8----------8-12-|
B|------------/10-------------12/14\12----12/14\10|-----9-------10-----|
G|11br11br-13-----10-9-7---11----------13---------|------8-----9-------|
D|------------------------------------------------|-------12-10--------|
A|------------------------------------------------|---------9----------|
D|------------------------------------------------|--------------------|
lead guitar                                        sweep picking x2
E|------------/11-------------13/15\13----13/15\11|-14-10-------------10-14|
B|12br12br-14-----11-10-8--12----------14---------|------8----------11-----|
G|------------------------------------------------|-------10------10-------|
D|------------------------------------------------|---------11--11---------|
A|------------------------------------------------|-----------10-----------|
D|------------------------------------------------|------------------------|
rythem guitar
E|-----------------------------------------------------------------|
B|--------------------------11-13-------11h13----13h15-10--12-13s--|
G|-15-19-17-13-13h15-10--10-------13-10-------12-------------------|
D|-----------------------------------------------------------------|
A|-----------------------------------------------------------------|
D|-----------------------------------------------------------------|
lead guitar
E|--------------------------11-13-------11h13----13h15-10--12-13s--|
B|-15-19-17-13-13h15-10--10-------13-10-------12-------------------|
G|-----------------------------------------------------------------|
D|-----------------------------------------------------------------|
A|-----------------------------------------------------------------|
D|-----------------------------------------------------------------|
guitar 3
E|------------------------------|
B|------------------------------|
G|------------------------------|do this until solo ends
D|-0-00-0-00-5-33--0-00--0--0h5-|
A|-0-00-0-00-5-33--0-00--0--0h5-|
D|-0-00-0-00-5-33--0-00--0--0h5-|





E|----------------------------------------------------------------|
B|--10h12h13-------13-12--10-----------------------13-10--12b\r---|
G|-----------13-12-----------12-10-----------12-10----------------|x2
D|---------------------------------13-10--12--------------------00|
A|--------------------------------------------------------------00|
D|--------------------------------------------------------------00|
PM                                                              --
lead guitar
E|--12h14h15-------15-14--12-----------------------15-12--14b\r---|
B|-----------15-14-----------14-12-----------14-12----------------|x2
G|---------------------------------15-12--14----------------------|
D|--------------------------------------------------------------00|
A|--------------------------------------------------------------00|
D|--------------------------------------------------------------00|
PM                                                              --

thats it and......yeah thats it
Tap to rate this tab
# A B C D E F G H I J K L M N O P Q R S T U V W X Y Z