Song name
# A B C D E F G H I J K L M N O P Q R S T U V W X Y Z

Misc Unsigned Bands - Element Of Surprise - Whisper In The Wind tab

Hello!
This tab is 100% accurate because I am in Element of Surprise.
You can hear this song at www.myspace.com/elementofsurpriserock

Guitar 1: Acoustic (Nolan)
Guitar 2: Electric Distortion (Matt)

Intro Gtr 1
|-----------------------------------------------------------------|
|-----------------------------------------------------------------|
|-7---7-7-------------------------7---7-7-9---9-9-----------------|
|-7---7-7-7---7-7-9---9-9-5---5-5-7---7-7-9---9-9-5---5-5-7---7-7-|
|-5---5-5-7---7-7-9---9-9-5---5-5-5---5-5-7---7-7-5---5-5-7---7-7-|
|---------5---5-5-7---7-7-3---3-3-----------------3---3-3-5---5-5-|x2

Verse Gtr 1
|---------------------------------|
|---------------------------------|
|-7-7-7-7-------------------------|
|-7-7-7-7-7-7-7-7-9-9-9-9-5-5-5-5-|
|-5-5-5-5-7-7-7-7-9-9-9-9-5-5-5-5-|
|---------5-5-5-5-7-7-7-7-3-3-3-3-|x3

|---------------------------|
|---------------------------|
|-7-7-7-7-------------------|
|-7-7-7-7-7-7-7-7-9-9-9-9-5-|
|-5-5-5-5-7-7-7-7-9-9-9-9-5-|
|---------5-5-5-5-7-7-7-7-3-|

Chorus Gtr 2
|-----------------------------------------------------------------|
|-----------------------------------------------------------------|
|-7-7-7-7-------------------------7-7-7-7-9-9-9-9-----------------|
|-7-7-7-7-7-7-7-7-9-9-9-9-5-5-5-5-7-7-7-7-9-9-9-9-5-5-5-5-7-7-7-7-|
|-5-5-5-5-7-7-7-7-9-9-9-9-5-5-5-5-5-5-5-5-7-7-7-7-5-5-5-5-7-7-7-7-|
|---------5-5-5-5-7-7-7-7-3-3-3-3-----------------3-3-3-3-5-5-5-5-|

Verse Gtr 1
|---------------------------------|
|---------------------------------|
|-7-7-7-7-------------------------|
|-7-7-7-7-7-7-7-7-9-9-9-9-5-5-5-5-|
|-5-5-5-5-7-7-7-7-9-9-9-9-5-5-5-5-|
|---------5-5-5-5-7-7-7-7-3-3-3-3-|x3

|---------------------------|
|---------------------------|
|-7-7-7-7-------------------|
|-7-7-7-7-7-7-7-7-9-9-9-9-5-|
|-5-5-5-5-7-7-7-7-9-9-9-9-5-|
|---------5-5-5-5-7-7-7-7-3-|

Chorus Gtr 2
|-----------------------------------------------------------------|
|-----------------------------------------------------------------|
|-7-7-7-7-------------------------7-7-7-7-9-9-9-9-----------------|
|-7-7-7-7-7-7-7-7-9-9-9-9-5-5-5-5-7-7-7-7-9-9-9-9-5-5-5-5-7-7-7-7-|
|-5-5-5-5-7-7-7-7-9-9-9-9-5-5-5-5-5-5-5-5-7-7-7-7-5-5-5-5-7-7-7-7-|
|---------5-5-5-5-7-7-7-7-3-3-3-3-----------------3-3-3-3-5-5-5-5-|x2

Bridge Gtr 1&2
|----------------------------------|
|----------------------------------|
|-4---4-6-7---7-9-11---11-12-11-9-|
|-x---x-x-x---x-x-x----x--x--x--x-|
|-2---2-4-5---5-7-9----9--10-9--7-|
|----------------------------------|x3

Gtr 2
|-----------------------------------------|
|-----------------------------------------|
|-4---4-6-7---7-9-9---9-9-9-9-9-9-9-9-11~-|
|-x---x-x-x---x-x-x---x-x-x-x-x-x-x-x-x---|
|-2---2-4-5---5-7-7---7-7-7-7-7-7-7-7-9~--|
|-----------------------------------------|
|
|
|Gtr 1
|-7---7-9-10---10-12-14---14-15-14-12-10~-|
|-----------------------------------------|
|-----------------------------------------|
|-----------------------------------------|
|-----------------------------------------|
|-----------------------------------------|

Verse 3 Gtr 1&2
|-----------------------------------------------------------|
|-----------------------------------------------------------|
|-7-7-----------------------------7-7-----------------------|
|-7-7-----7-7-----9-9-----5-5-----7-7-----7-7-----9-9-----5-|
|-5-5-----7-7-----9-9-----5-5-----5-5-----7-7-----9-9-----5-|
|---------5-5-----7-7-----3-3-------------5-5-----7-7-----3-|

Chorus Gtr 2
|-----------------------------------------------------------------|
|-----------------------------------------------------------------|
|-7-7-7-7-------------------------7-7-7-7-9-9-9-9-----------------|
|-7-7-7-7-7-7-7-7-9-9-9-9-5-5-5-5-7-7-7-7-9-9-9-9-5-5-5-5-7-7-7-7-|
|-5-5-5-5-7-7-7-7-9-9-9-9-5-5-5-5-5-5-5-5-7-7-7-7-5-5-5-5-7-7-7-7-|
|---------5-5-5-5-7-7-7-7-3-3-3-3-----------------3-3-3-3-5-5-5-5-|x2

Outro Gtr 1
|-----------------------------------------------------------------|
|-----------------------------------------------------------------|
|-7---7-7-------------------------7---7-7-9---9-9-----------------|
|-7---7-7-7---7-7-9---9-9-5---5-5-7---7-7-9---9-9-5---5-5-7---7-7-|
|-5---5-5-7---7-7-9---9-9-5---5-5-5---5-5-7---7-7-5---5-5-7---7-7-|
|---------5---5-5-7---7-7-3---3-3-----------------3---3-3-5---5-5-|
                                                Slow Down v
|-------------------------------------------------------------------|
|-------------------------------------------------------------------|
|-7---7-7-------------------------7---7-7-9---9-9---------6-6-6--7~-|
|-7---7-7-7---7-7-9---9-9-5---5-5-7---7-7-9---9-9-5---5-5-7-7-7--7~-|
|-5---5-5-7---7-7-9---9-9-5---5-5-5---5-5-7---7-7-5---5-5-7-7-7--7~-|
|---------5---5-5-7---7-7-3---3-3-----------------3---3-3-5-5-5--5~-|

Please rate and comment. Listen to it on myspace.
Tap to rate this tab
# A B C D E F G H I J K L M N O P Q R S T U V W X Y Z