Song name
# A B C D E F G H I J K L M N O P Q R S T U V W X Y Z

Misc Unsigned Bands - Witness - Sacred Stone tab

SOLO-

Pedal an E
e---4/5----6\2/4--------|
B---6/7------0----------|
G---x-------------------|
D---O--------5----------|
A---x-------------------|
E---5/6-----------------|


e---4/5----6\2/4-------8/12~~|
B---6/7------0---------------|
G---x------------------------|
D---O--------5---------------|
A---x------------------------|
E---5/6----------------------|

HEAVY DISTORTION!!!

Just repeat over and over. This song is awesome if you can get it down.

Tap to rate this tab
# A B C D E F G H I J K L M N O P Q R S T U V W X Y Z