Song name
# A B C D E F G H I J K L M N O P Q R S T U V W X Y Z

Misc Unsigned Bands - Stellar Freedom - Here For An Hour Away For A Year tab

----------------------------------------------------------------------------
	       Here for an Hour, Away for a Year - Stellar Freedom 
----------------------------------------------------------------------------
Tabbed by: Evan Kenagy 
Email: ekenagy@comcast.net

Tuning:e,B,G,D,A,D

Rhythm Guitar 



e|--------------------|
B|--------------------|
G|--------------------|
D|-0~~~~~~~~~~~~~~~~--|
A|-0~~~~~~~~~~~~~~~~--|
D|-0~~~~~~~~~~~~~~~~--|



e|-2222-0000-0000-0000-2222-0000-0000-0000-----------------------|
B|-3333-1111-0000-1111-3333-1111-0000-1111-----------------------|
G|-2222-0000-0000-0000-2222-0000-0000-0000-----------------------|
D|-0000-0000-0000-0000-0000-0000-0000-0000-----------------------|x2
A|---------------------------------------------------------------|
D|---------------------------------------------------------------|



e|-0~~~~~~~~-----------|
B|-0~~~~~~~~-----------|
G|-0~~~~~~~~-----------|
D|-0~~~~~~~~-----------|
A|---------------------|
D|----------2~~~~~~~~--|



e|-------------------------------------------------------------------------|
B|-------------------------------------------------------------------------|
G|-------------------------------------------------------------------------|
D|-55-77-99-77-55-77-99-77-55-77-99-77-55-77-99-1010~~~-10-9-5555-3333-----|
A|-55-77-99-77-55-77-99-77-55-77-99-77-55-77-99-1010~~~-10-9-5555-3333-----|
D|-55-77-99-77-55-77-99-77-55-77-99-77-55-77-99-1010~~~-10-9-5555-3333-----|



e|-------------------------------------------------------------------------|
B|-------------------------------------------------------------------------|
G|-------------------------------------------------------------------------|
D|-5555-3333-5555-33-0-3-5555-33-0-3-5555-3333-5555-33-0-3-5555-33-0-3-----|
A|-5555-3333-5555-33-0-3-5555-33-0-3-5555-3333-5555-33-0-3-5555-33-0-3-----|
D|-5555-3333-5555-33-0-3-5555-33-0-3-5555-3333-5555-33-0-3-5555-33-0-3-----|



e|-------------------------------------------------|
B|-------------------------------------------------|
G|-------------------------------------------------|
D|-5555-2222-9999-4444-5555-2222-9999-4444---------|x2
A|-5555-2222-9999-4444-5555-2222-9999-4444---------|
D|-5555-2222-9999-4444-5555-2222-9999-4444---------|



e|-------------------------------|
B|-------------------------------|
G|-------------------------------|
D|------------55*-55*-0~~~~~~~~--|
A|------------55*-55*-0~~~~~~~~--|
D|-55-44-0~~~~55*-55*-0~~~~~~~~--|

| *  palm mute
| /  slide up
| \  slide down
| h  hammer-on
| p  pull-off
| ~  let ring
| +  harmonic
| x  Mute note
===============================================================================


Tap to rate this tab
 
# A B C D E F G H I J K L M N O P Q R S T U V W X Y Z