Song name
# A B C D E F G H I J K L M N O P Q R S T U V W X Y Z

Misc Unsigned Bands - Cross Flag - I Just Want You tab

Lyrics: I JUST WANT YOU!!!!!!

Tab:      Intro (Tate)

E||-------------------------------------------------------|
B||-------------------------------------------------------|  
G||-------------------------------------------------------|  x1
D||-----------7-------------------------------------------|
A||-7--10--5--5-------------------------------------------|
E||-5--7---3----------------------------------------------|

                        Verse
E||-------------------------------------------------------|
B||-------------------------------------------------------|
G||-------------------------------------------------------|   x4
D||-----------7-------------------------------------------|
A||-7--10--5--5-------------------------------------------|
E||-5--8---3----------------------------------------------|

 ||-------------------------------------------------------|
B||-------------------------------------------------------|
G||-------------------------------------------------------|   x2
D||----------------7~~~~----------------------------------|
A||-7~~~~--10~~~~--5~~~~-----5~~~~------------------------|
E||-5~~~~--8~~~~-------------3~~~~------------------------|

||-------------------------------------------------------|
B||-------------------------------------------------------|
G||-------------------------------------------------------|   x4
D||-----------7-------------------------------------------|
A||-7- 10--5--5-------------------------------------------|
E||-5--8---3----------------------------------------------|
              
                  Chorus
||--------------------------------------------------------|
B||-------------------------------------------------------|
G||-------------------------------------------------------|   x4
D||-----------7777--5555----------------------------------|
A||-77777777--5555--3333----------------------------------|
E||-55555555----------------------------------------------|


Intro
Verse
Chorus
Verse
Chorus
Devo's SOLO
Tap to rate this tab
 
# A B C D E F G H I J K L M N O P Q R S T U V W X Y Z