Song name
# A B C D E F G H I J K L M N O P Q R S T U V W X Y Z

Misc Unsigned Bands - 33 West - Call On My Lover tab

-----------------------------------------------------------------------------
			     CALL ON MY LOVER - 33 West
-----------------------------------------------------------------------------
Tabbed by:Dream_Disorder
Email:timemaster701@cox.net

Tuning:E A D G B E

Verse/Intro
e|--------------------------3-----------------------------------------------|
B|----------------------------3---------------------------------------------|
G|-3-------3--------3-----------3-------------------------------------------|
D|-----5-----5---5------5---------5-----------------------------------------|
A|---5---5-----5------5---5-------------------------------------------------|
E|-3----------------3-------------------------------------------------------|
Play that a few times and then...

e|-2---------3---------5---------6---------------------------2--------------|
B|---3---------3---------3---------3--------3-------3--------3--------------|
G|-----2---------2---------2---------2----------0-----0---0--2--------------|
D|-0-----0---0-----0---0-----0---0-----0------0---0-----0----0--------------|
A|--------------------------------------------------------------------------|
E|------------------------------------------3-------------------------------|

Verse 2:
e|--------------------------------------------------------------------------|
B|--------------------------------------------------------------------------|
G|--------------------------------------------------------------------------|
D|----------------9-10-9---------------7-8-7-------------------8-10---------|
A|-10-10-10-10-10--------10--8-8-8-8-8-------8--10-10-10-10-10------10------|
E|--------------------------------------------------------------------------|
pm...........................................................................

e|--------------------------------------------------------------------------|
B|--------------------------------------------------------------------------|
G|-8-7----12-10-------------------------------------------------------------|
D|-----8--------12------------------8-10-8---------------7-8-7-------8-7----|
A|-------------------10-10-10-10-10--------10--8-8-8-8-8-------8-666-----8--|
E|--------------------------------------------------------------------------|

e|--------------------------------------------------------------------------|
B|--------------------------------------------------------------------------|
G|--------------------------------------------------------------------------|
D|-8-7---8-7------10-10-12--------------------------------------------------|
A|-----8-----8----8--8--10--------------------------------------------------|
E|--------------------------------------------------------------------------|
Play that same thing except/ Pre-chorus: this part goes with HEAVY DISTORTION
end with this...           /
                           /
e|----------------------\-------------------------------------------------|
B|----------------------\-------------------------------------------------|
G|----------------------\-------------------------------------------------|
D|----8-7---8-7---8-7---\-7777777755555555---12h13p12----12-10h12p10------|
A|666-----8-----8-----8-\-7777777755555555------------13----------13-12-10|
E|----------------------\-5555555533333333--------------------------------|
                            pm......
e|--------------------------------------------------------------------------|
B|--------------------------------------------------------------------------|
G|-12---------------------7h8p7-------------77777777777777778888888899999999|
D|-x--7777777755555555---8------10-8-8h10p8-77777777777777778888888888888888|
A|-10-7777777755555555-10-------------------55555555555555556666666677777777|
E|-11-5555555533333333------------------------------------------------------|
      pm......
e|--------------------------------------------------------------------------|
B|--------------------------------------------------------------------------|
G|-10-10-10-10-10-10-10-10--14-14-14-14-14-14-14-14-------------------------|
D|-10-10-10-10-10-10-10-10--x--x--x--x--x--x--x--x--------------------------|
A|-8--8--8--8--8--8--8--8---12-12-12-12-12-12-12-12-------------------------|
E|--------------------------------------------------------------------------|

e|-66-66-66-66-8--8--8--8--10-10-10-10--66-66-66-66-8--8--8--8--66-8--8-----|
B|-88-88-66-66-10-10-10-10-11-11-11-11--88-88-66-66-10-10-10-10-88-10-10----|
G|-88-88-77-77-10-10-10-10-12-12-12-12--88-88-77-77-10-10-10-10-88-10-10----|
D|--------------------------------------------------------------------------|
A|--------------------------------------------------------------------------|
E|--------------------------------------------------------------------------|

e|-66-66-66-66--66-66-8--8--8--8---10-10-10-10---10-------------------------|
B|-66-66-66-66--88-88-10-10-10-10--11-11-11-11---11-------------------------|
G|-77-77-77-77--88-88-10-10-10-10--12-12-12-12---12-------------------------|
D|--------------------------------------------------------------------------|
A|--------------------------------------------------------------------------|
E|--------------------------------------------------------------------------|

Second verse, pre-chorus and chorus are the same.
now for the bridge

e|-3--1--3--1---------------------------------------------------------------|
B|-3--1--3--1---------------------------------------------------------------|
G|-3--2--3--2---------------------------------------------------------------|
D|-5--3--5--3---------------------------------------------------------------|
A|-5--3--5--3---------------------------------------------------------------|
E|-3--1--3--1---------------------------------------------------------------|
 thats it and when the horns do their little solo,i'm not completely sure what the riff 
 I think it might be the same as the chorus.

and the song ends with the chorus.  i missed a lot of sleep making this tab so i want 
to use it

| h  hammer-on
| p  pull-off
| x  Mute note
Tap to rate this tab
 
# A B C D E F G H I J K L M N O P Q R S T U V W X Y Z