Song name
# A B C D E F G H I J K L M N O P Q R S T U V W X Y Z

Misc Unsigned Bands - Tough Luck - One Try A Day tab

Intro
|----------------------------------------------------|
|----------------------------------------------------|
|----------------------------------------------------|
|---4-5-6---6-5-4-2-0----0-2-4-2-0---0---------------| 
|-5------------------------------------5-2-5-5-------|
|----------------------------------------------------|

|----------------------------------------------------|
|----------------------------------------------------|
|----------------------------------------------------|
|---4-5-6---6-5-4-2-0----0-2-4-2-0---0---------------| 
|-5------------------------------------5-2-----------|
|----------------------------------------------------|

(fast pase)
|----------------------------------------------------------------------|
|----------------------------------------------------------------------|
|----------------------------------------------------------------------|
|--777777-777777-777777-777777-----------------------------------------| x2
|--555555-555555-555555-555555----777777--555555--444444--222222-------|
|---------------------------------555555--333333--222222--000000-------|

Verse............... More later


Tap to rate this tab
# A B C D E F G H I J K L M N O P Q R S T U V W X Y Z