Song name
# A B C D E F G H I J K L M N O P Q R S T U V W X Y Z

Misc Unsigned Bands - Ego-trip - Dont Listen tab

this song is by the Great Ego-Trip who formed at a young age.........

Harry Kennedy - Drums.
Ronan o'Donoghue - Bass.
David Gildea - Guitar 1.
Gary o'Keeffe - Guitar 2.
Frank Van Esbeck - Vocals


Tuning: Standard 
> = bend up 
< = bend down
 
Intro: 
Guitar 1: 
e ------------------------------------------------------------------- |
B ------------------------------------------------------------------- |
G ------------------------------------------------------------------- |
D ------------------4-----4-----4-----4------------------------------ | X 4
A ------5-----4--2-----2-----2-----2--------------------------------- |
E ---3-----2--------------------------------------------------------- |
Guitar 2: Lead Guitar 
e -------------------------------------------------------------------- |
B -------------------------------------------------------------------- |
G -------------------------------------------------------------------- |
D ---5--4--9-->11 ~ --9--5--4--9--<11 ~ --9--------------------------- | X 2
A -------------------------------------------------------------------- |
E -------------------------------------------------------------------- |
Verse = repeat intro....... 
    "You're not good enough...."
Guitar 1: 
e ------------------------------------------------------------------- |
B ------------------------------------------------------------------- |
G ------------------------------------------------------------------- |
D ------------------4-----4-----4-----4------------------------------ | X 4
A ------5-----4--2-----2-----2-----2--------------------------------- |
E ---3-----2--------------------------------------------------------- |
Guitar 2: Lead Guitar 
e -------------------------------------------------------------------- |
B -------------------------------------------------------------------- |
G -------------------------------------------------------------------- |
D ---5--4--9-->11 ~ --9--5--4--9--<11 ~ --9--------------------------- | X 2
A -------------------------------------------------------------------- |
E -------------------------------------------------------------------- |
Chorus:
         "don't listen to what anybody's gonna' say"
Guitar 1:
e ------------------------------------------------------------------- |
B ------------------------------------------------------------------- |
G -----7777---------------------------------------------------------- |
D -----7777-7777-9999-5555------------------------------------------- | X 2
A -----5555-7777-9999-5555------------------------------------------- |
E ----------5555-7777-3333------------------------------------------- |
Guitar 2:Lead Guitar
e ------------------------------------------------------------------- |
B ------------------------------------------------------------------- |
G ------------------------------------------------------------------- |
D -----7-7-7-9------------------------------------------------------- | X 2
A -------------7-7-7-8-9-9-9-7-5-5-5-7------------------------------- |
E ------------------------------------------------------------------- |
Verse 2 = same as verse 1.
Chorus = repeat chorus(as shown above).

Interlude:
Guitar 1:
e ------------------------------------------------------------------- |
B ------------------------------------------------------------------- |
G -----------2-------0----------------------------------------------- |
D ---------2---2---2---2-----0-------0------------------------------- | X 2
A -------0-------3---------2---2---2---2----------------------------- |
E -----------------------3-------3----------------------------------- |
Guitar 2:Lead Guitar
e ------------------------------------------------------------------- |
B ------------------------------------------------------------------- |
G -----------------------------------------------12-10--------------- |
D -------7--7-9-10-10-9---------7--7-9-10-10-9----------------------- |
A ----------------------9---9------------------9--------------------- |
E ------------------------------------------------------------------- |
Effected Drums 

Chorus = repeat chorus(as shown above)
Verse 3 = same as verse 1

Verse 1: 
"You're not good enough, 
You think you should leave, 
You don't even give it a thought because you, 
Don't believe."
 
Chorus: 
"Don't listen to what anybody's gonna say, 
Because you know it's gonna be okay."
 
Verse 2: 
"Just as your turnin' around, 
You know you won't stay, 
Somebody starts puttin you down and you, 
You feel the pain."
 
Chorus: 
"Don't listen to what anybody's gonna say, 
Because you know it's gonna be okay."
 
Interlude 
Effected Drums

Chorus:
"Don't listen to what anybody's gonna say, 
Because you know it's gonna be okay."
 
Verse 3: 
"Now that you've realised, 
I'll help you anyway, 
The cockiness inside them dies, 
But as long as you need me,
I will Stay."
Tap to rate this tab
 
# A B C D E F G H I J K L M N O P Q R S T U V W X Y Z