Song name
# A B C D E F G H I J K L M N O P Q R S T U V W X Y Z

Misc Unsigned Bands - Sudden Seizures - Apocalypse tab

INTRO

e|--2-----2-----2----2-----2-----2----2-----2-----7----2-----2-----2-----|
b|---3-----3-----0----3-----3-----3----3-----3-----5----3-----3-----3----|
g|----4-----4----------4-----4----------4-----4----------4-----4---------|
d|-----------------------------------------------------------------------|
a|-----------------------------------------------------------------------|
E|-----------------------------------------------------------------------|

                                          |  1st ending ||  2nd ending   |
e|--0-----2-----0----------0--------------|---------2-- ||---------------|
b|---0-----3-----0---3------0----3----2---|-----2------.||-----2---0-----|
g|----0-----4---------4------0----4----3--|-3---------- ||-3-------------|
d|---------------------5----------------4-|--------(4)-.||---------------|
a|----------------------------------------|------------ ||---------------|
E|----------------------------------------|------------ ||---------------|


BODY

e|------2----2----5---75---------------5----752----------------2---------|
b|--3----3----3---------75----5----5-------------3----3----3-------------|
g|---------------------------6----6------------------4----4--------------|
d|-----------------------------------------------------------------------|
a|-----------------------------------------------------------------------|
E|-----------------------------------------------------------------------|

               | 1st ending ||  2nd ending  |
e|--3202-------|--320------ ||--------------|
b|---------2---|-----------.||--34----------|
g|-------------|----------- ||--------------|
d|-------------|-----------.||--------------|
a|-------------|----------- ||--------------|
E|-------------|----------- ||--------------|


ENDING



e|--2---2----0---0----------------------------------------------------- ||
b|---3-3-3----2-2----3---3----2---2---0---0----3---3---0---0----2---2--.||
g|----4--------3------4-4-4----3-3-----0-0-0----2-2-----0-0-0----3-3--- ||
d|---------------------5--------4-------0--------4-------0--------4----.||
a|--------------------------------------------------------------------- ||
E|--------------------------------------------------------------------- ||


LAST CHORDS   *=hold  19=last bar

e|----------0***---7***---19***------------------------------------------|
b|--0***----0***---7***---19***------------------------------------------|
g|----------0***---7***---19***------------------------------------------|
d|-----------------------------------------------------------------------|
a|-----------------------------------------------------------------------|
E|-----------------------------------------------------------------------|
Tap to rate this tab
# A B C D E F G H I J K L M N O P Q R S T U V W X Y Z