Song name
# A B C D E F G H I J K L M N O P Q R S T U V W X Y Z

Misc Unsigned Bands - Sudden Seizures - Take Me Home tab

Intro:

E-----2-------2---2--3-------3---3-----------0--0------------0---0--/
B--------0-0----0-------0-0----0-----2------2-2--2---1------1-1---0-/
G---------0--------------0----------------0---------------0---------/
D-------------------------------------------------------------------/
A-------------------------------------------------------------------/
E-----0--------------0---------------0---------------0--------------/


--0-----
--0h1---
--0----1
--0h2---
--0----2
--0-----

CHORUS


KEY:  A= movement up	 V= Movement down

   v  VAVAV   VA  V  VAVAV  VA  V  VAVAV  VA  V  VAVAV  VA

---2--22222---22--------------------------------------------|
---3--33333---33--2--22222--22--2--22222--22----------------|
---4--44444---44--3--33333--33--2--22222--22--1--11111--11--|
---|--------------4--44444--44--2--22222--22--2--22222--22--|
---|--------------|-------------|-------------2--22222--22--|
---|--------------|-------------|-------------|-------------|
  come           hand           one          hold


   V  VAVAV  VA  V  VAVAV  VA  V  VAVAV  VA   V

---2--22222--22--1--11111--11-----------------3-------------|
---3--33333--33--3--33333--33--1--11111--11---0-------------|
---2--22222--22--2--22222--22--2--22222--22---0-------------|
---|-------------|-------------2--22222--22---0-------------|
---|-------------|-------------|--------------2-------------|
---|-------------|-------------|--------------3-------------|
  all          memory        erase           old




Tap to rate this tab
# A B C D E F G H I J K L M N O P Q R S T U V W X Y Z