Song name
# A B C D E F G H I J K L M N O P Q R S T U V W X Y Z

Misc Unsigned Bands - Kill The Forgotten - The Souls Of The Dead Surroundings tab

Help us improve GuitareTab! Take a short survey!
this band is melodic deathmetal/metalcore

   guitarists:Arciedmon,Mr.Cave     *=harmonic
                                    ^=bend
  intro solo:-Mr.cave               s=slide to string
1----------------16-15-------------12------------------------14-11-12---11--|
2-13-13-13-0--------------16^-----------13-0-0-0-0-0-0-0-0------------14----|
3--------------12--13--9------12s17^----------------------------------------|
4-------------10------------------------------------------------------------|
5---------------------------------------------------------------------------|
6---------------------------------------------------------------------------|

 background guitar:-arciedemon
1----------------------------------------------------------------------------|
2----------------------------------------------------------------------------|
3-13-13-13-13-13-13-13-13-13-13-13-13-13-13-13-13-13-13-13-13-13-13-13-13-13-|
4-13-13-13-13-13-13-13-13-13-13-13-13-13-13-13-13-13-13-13-13-13-13-13-13-13-|
5-15-15-15-15-15-15-15-15-15-15-15-15-15-15-15-15-15-15-15-15-15-15-15-15-13-|
6-00-00-00-00-00-00-00-00-00-00-00-00-00-00-00-00-00-00-00-00-00-00-00-00-00-|
 repeat 2x
 solo continued:-Mr.Cave
1-16-17---14-----------11-12-11-14-11-12---17^-17^S19-------14-----------12--|
2------11^------12----------------------13----------------12------11-12-11---|
3-------------13---14s15----------------------------------------16-----------|
4-----------12---------------------------------------16-13^------------------|
5----------------------------------------------------------------------------|
6----------------------------------------------------------------------------|


 Chorus verse:-both guitars
1---------------------------------------------------------------------------|
2---------------------------------------------------------------------------|
3---------------------------------------------------------------------------|
4---------------------------------------------------------------------------|
5-0-0--9-7-6-0-0--9-7-6-0-0--7-5-4-0-0--7-5-4-0-0--9-7-6-0-0--7-5-4-0-0-0-0-|
6-0-0--------0-0--------0-0--------0-0--------0-0--------0-0--------0-0-0-0-|

1---------------------------------------------------------------------------|
2---------------------------------------------------------------------------|
3---------------------------------------------------------------------------|
4---------------------------------------------------------------------------|
5-0-0--7-5-4-0-0--7-5-4-0-0--9-8-5-0-0--9-8-5-0-0--7-6-4-0-0--9-7-6-0-0-0-0-|
6-0-0--------0-0--------0-0--------0-0--------0-0--------0-0--------0-0-0-0-|

Chorus riff:-Arciedemon
1---------------------------------------------------------------------------|
2---------------------------------------------------------------------------|
3---------------------------------------------------------------------------|
4---------------------------------------------------------------------------|
5---------10-5-----6-7-6-7-4-3----------10-5------6-7-6-7-4-3-0-0-0-0-0-0-0-|
6-0-0-0-0------0-0-------------0-0-0-0-------0-0--------------0-0-0-0-0-0-0-|
repeat 4x
 chorus:-Mr.Cave
1---------------------------------------------------------------------------|
2---------------------------------------------------------------------------|
3---------------------------------------------------------------------------|
4-----------------------------------------------------------------0-0-0-0-0-|
5---3--3--5--3--3--5--3--3--7--3--3--7--7--7--9--5--5--7--5--5--9-0-0-0-0-0-|
6---3--3--5--3--3--5--3--3--7--3--3--7--7--7--9--5--5--7--5--5--9-0-0-0-0-0-|

repeat 2x

 solo:-Arciedemon
1------12s13----14---12--6-8-----10-10-10-10--------------------------------|
2-12--14----13-8---13--5^---12-12-----------2*------------------------------|
3--13--------12---10------10--13--------------------------------------------|
4---------------------------------------------------------------------------|
5---------------------------------------------------------------------------|
6---------------------------------------------------------------------------|
 solo continued:-arciedemon
1------12------------|
2-----9-14-----------|
3----13--13----------|
4---12-----9---17s18-|
5--13-------8-12-----|
6-10--------10-------|

 bridge:-both guitars
1----------------------------------------------------------------------------|
2----------------------------------------------------------------------------|
3----------------------------------------------------------------------------|
4-0-0-0-0-0-0-0-0-0-0-0-0-0-0-0-0-0-0-0-0-0-0-0-0-0-0-0-0-0-0-0-0-0-0-0-0-0--|
5-0-0-0-0-0-0-0-0-0-0-0--5-0-0-0-0-0-0-0-0-0-0-0-0-0-0-7-0-0-0-0-0-0-0-0-0-0-|
6-0-0-0-0-0-0-0-0-0-0-0--5-0-0-0-0-0-0-0-0-0-0-0-0-0-0-7-0-0-0-0-0-0-0-0-0-0-|

repeat 10x

order od f song:
intro solo
verse 1
chorus1
solo
chorus2(same tabs as chorus1)
verse2
bridge
chorus1
Related for Kill The Forgotten - The Souls Of The Dead Surroundings tab