Song name
# A B C D E F G H I J K L M N O P Q R S T U V W X Y Z

Misc Unsigned Bands - This Side Up - Romance In The Air tab

-------------------------------------------------------------------------------
		Romance In The Air Intro - This Side Up
-------------------------------------------------------------------------------
Tabbed by: Bobby (Guitarist For TSU)
Email: xmaddeathsheadx@yahoo.com

Tuning: Normal

e|------------------------------------------|
B|------------------------------------------|
G|-------------------5----------------------|
D|-------5-------7-8---8-7-5----------------|
A|---7-8---8-7-5-------------8-7-5-7-8-7----|
E|-5-------------------------------------8--|

http://www.myspace.com/thissideup9
Tap to rate this tab
 
# A B C D E F G H I J K L M N O P Q R S T U V W X Y Z