Song name
# A B C D E F G H I J K L M N O P Q R S T U V W X Y Z

Misc Unsigned Bands - Project Eleven - Punk Boyfriend tab

Project Eleven-Punk Boyfriend
Tabbed by:


Tuning: Standard and Drop D

Guitar 1 plays everything but the chorus, which is simply this...over and over.

      G     C    D    C
e|----3-----0----2----0-----------------------------------------------------|
B|----0-----1----3----1-----------------------------------------------------|
G|----0-----0----2----0-----------------------------------------------------|
D|----0-----2----0----2-----------------------------------------------------|
A|----2-----3---------3-----------------------------------------------------|
E|----3-----0---------0-----------------------------------------------------|


Guitar 2 is in Drop D tuning. And does Chorus only with high distortion

e|-----------------------------------------------------------|
B|-----------------------------------------------------------|
G|-----------------------------------------------------------|
D|----55555555-----33333333--22222222---11111113-------------|
A|----55555555-----33333333--22222222---11111113-------------|
E|----55555555-----33333333--22222222---11111113-------------|

Thats about it.


| /  slide up
| \  slide down
| h  hammer-on
| p  pull-off
| ~  vibrato
| +  harmonic
| x  Mute note
===============================================================================
Tap to rate this tab
 
# A B C D E F G H I J K L M N O P Q R S T U V W X Y Z