Guitaretab - guitar tabs
Song name
# A B C D E F G H I J K L M N O P Q R S T U V W X Y Z

Misc Unsigned Bands - Project Eleven - Mountain Dew tab

Project Eleven- Mountain Dew
Standard Tuning

Intro x2
e|-----------------------------------------|
B|-----------------------------------------|
G|--777-----777----777----555--------------|
D|--7777-7--7777-7-7777-7-5557-7-----------|
A|--5557-7--5557-7-5557-7-3337-7-----------|
E|-----5-5-----5-5----5-5----5-5-----------|

Verse x2
e|-----------------------------------------|
B|-----------------------------------------|
G|--77777777-------------------------------|
D|--77777777-55555555-99999999-77777777----|
A|--55555555-55555555-99999999-77777777----|
E|-----------33333333-77777777-55555555----|

Chorus 
e|----------------------------------------|
B|----------------------------------------|
G|--7777777777777777----------------------|
D|--7777777777777777-55555555-77777777----|
A|--5555555555555555-55555555-77777777----|
E|-------------------33333333-55555555----|

Chorus ctd.
e|----------------------------------------|
B|----------------------------------------|
G|--7777777777777777----------------------|
D|--7777777777777777-55555555-7-----------|
A|--5555555555555555-55555555-7-----------|
E|-------------------33333333-5-----------|

back to intro..,
e|-----------------------------------------|
B|-----------------------------------------|
G|--777-----777----777----555--------------|
D|--7777-7--7777-7-7777-7-5557-7-----------|
A|--5557-7--5557-7-5557-7-3337-7-----------|
E|-----5-5-----5-5----5-5----5-5-----------|

then to verse x2
e|-----------------------------------------|
B|-----------------------------------------|
G|--77777777-------------------------------|
D|--77777777-55555555-99999999-77777777----|
A|--55555555-55555555-99999999-77777777----|
E|-----------33333333-77777777-55555555----|
[ Tab from: http://www.guitaretab.com/m/misc-unsigned-bands/81912.html ]
Chorus 
e|----------------------------------------|
B|----------------------------------------|
G|--7777777777777777----------------------|
D|--7777777777777777-55555555-77777777----|
A|--5555555555555555-55555555-77777777----|
E|-------------------33333333-55555555----|

Chorus ctd.
e|----------------------------------------|
B|----------------------------------------|
G|--7777777777777777----------------------|
D|--7777777777777777-55555555-7-----------|
A|--5555555555555555-55555555-7-----------|
E|-------------------33333333-5-----------|

Intro x4
e|-----------------------------------------|
B|-----------------------------------------|
G|--777-----777----777----555--------------|
D|--7777-7--7777-7-7777-7-5557-7-----------|
A|--5557-7--5557-7-5557-7-3337-7-----------|
E|-----5-5-----5-5----5-5----5-5-----------|

e|--------------------------------|
B|--------------------------------|
G|--------------------------------|
D|--5-5-5-5-5-5-5-5-7-7-7-7777----|
A|--5-5-5-5-5-5-5-5-7-7-7-7777----|
E|--3-3-3-3-3-3-3-3-5-5-5-5555----|

One more time!
*click*click*click*click*

Near end PLAYED 10x
e|-----------------------------------------|
B|-----------------------------------------|
G|--77777777-------------------------------|
D|--77777777-77777777-99999999-55555555----|
A|--55555555-77777777-99999999-55555555----|
E|-----------55555555-77777777-33333333----|

this little riff x4
E|-----------------------------------------|
B|-----------------------------------------|
G|-----------------------------------------|
D|-----------------------------------------|
A|-5-7-9-7---7-9-7---7-9-7-9-10-9-7--------|
E|---------5-------7-----------------------|



Thats it!
Enjoy!


| /  slide up
| \  slide down
| h  hammer-on
| p  pull-off
| ~  vibrato
| +  harmonic
| x  Mute note
===============================================================================
Related for Project Eleven - Mountain Dew tab
Advertisement will be closed in 10 seconds