Guitaretab - guitar tabs
Song name
# A B C D E F G H I J K L M N O P Q R S T U V W X Y Z

Misc Unsigned Bands - Another Day Down - Spin Him Around - Erics Part tab

-------------------------------------------------------------------------------
Another Day Down  Spin Him Around
-------------------------------------------------------------------------------
Tabbed by: Rhys Eadie
Email: rhysdawg@hotmail.com

Tuning: I use drop D cuz it sounds mean DADGBe not right though, theyre in E minor, so 
you tab it out correctly, could you tell me.

| /  slide up
| \  slide down
| h  hammer-on
| p  pull-off
| ~  Let ring
| +  harmonic
| x  Mute note


ERICS PART

e|---------------------------------------------------------------------------|
B|---------------------------------------------------------------------------|
G|-6-6-6-6-6-6-6-6-6-6-6-6-6-6-6-6-------------------------------------------|
D|-8-8-8-8-8-8-8-8-8-8-8-8-8-8-8-8-9-9-9-9-9-9-9-9-9-9-9-9-9-9-9-9-----------|
A|-8-8-8-8-8-8-8-8-8-8-8-8-8-8-8-8-9-9-9-9-9-9-9-9-9-9-9-9-9-9-9-9-----------|
D|---------------------------------9-9-9-9-9-9-9-9-9-9-9-9-9-9-9-9-----------|

e|---------------------------------------------------------------------------|
B|---------------------------------------------------------------------------|
G|-6-6-6-6-6-6-6-6-6-6-6-6-6-6-6-6-------------------------------------------|
D|-8-8-8-8-8-8-8-8-8-8-8-8-8-8-8-8-9-9-9-9-9-9-9-9-6-6---6-------------------|   x2
A|-8-8-8-8-8-8-8-8-8-8-8-8-8-8-8-8-9-9-9-9-9-9-9-9-6-6---6-------------------|
D|---------------------------------9-9-9-9-9-9-9-9-6-6---6-------------------|

e|---------------------------------------------------------------------------|
B|---------------------------------------------------------------------------|
G|---------------------------------------------------------------------------|
D|-11-11-11-11/13-13-13-13-10-10-10/11---------------------------------------|   x4
A|-X-X-X--X-/X--X--X--X--X--X--X-/X----------------------------------------|
D|-9--9--9--9-/11-11-11-11-8--8--8-/9----------------------------------------|
    ^ All Harmonics ^
e|---------------------------------------------------------------------------|
B|---------------------------------------------------------------------------|
G|---------------------------------------------------------------------------|
D|-11-11-11-11/13-13--13-10-10-10/11-----------------------------------------|   x4
A|-X-X-X--X-/X--X--X--X--X--X-/X------------------------------------------|
D|-9--9--9--9-/11-11--11-8--8--8-/9------------------------------------------|
    ^ All Harmonics ^
e|---------------------------------------------------------------------------|
B|---------------------------------------------------------------------------|
G|-6-6-6-6-6-6-6-6-6-6-6-6-6-6-6-6-------------------------------------------|
D|-8-8-8-8-8-8-8-8-8-8-8-8-8-8-8-8-9-9-9-9-9-9-9-9-9-9-9-9-9-9-9-9-----------|
A|-8-8-8-8-8-8-8-8-8-8-8-8-8-8-8-8-9-9-9-9-9-9-9-9-9-9-9-9-9-9-9-9-----------|
D|---------------------------------9-9-9-9-9-9-9-9-9-9-9-9-9-9-9-9-----------|

e|---------------------------------------------------------------------------|
B|---------------------------------------------------------------------------|
G|-6-6-6-6-6-6-6-6-6-6-6-6-6-6-6-6-------------------------------------------|
D|-8-8-8-8-8-8-8-8-8-8-8-8-8-8-8-8-9-9-9-9-9-9-9-9-6--6--6-------------------|   x2
A|-8-8-8-8-8-8-8-8-8-8-8-8-8-8-8-8-9-9-9-9-9-9-9-9-6--6--6-------------------|
D|---------------------------------9-9-9-9-9-9-9-9-6--6--6-------------------|

[ Tab from: http://www.guitaretab.com/m/misc-unsigned-bands/81929.html ]
e|---------------------------------------------------------------------------|
B|---------------------------------------------------------------------------|
G|---------------------------------------------------------------------------|
D|-11-11-11-11/13-13-13-13-10-10-10/11---------------------------------------|   x4
A|-X-X-X--X-/X--X--X--X--X--X--X-/X----------------------------------------|
D|-9--9--9--9-/11-11-11-11-8--8--8-/9----------------------------------------|
    ^ All Harmonics ^
e|---------------------------------------------------------------------------|
B|---------------------------------------------------------------------------|
G|---------------------------------------------------------------------------|
D|-11-11-11-11/13-13--13-10-10-10/11-----------------------------------------|   x4
A|-X-X-X--X-/X--X--X--X--X--X-/X------------------------------------------|
D|-9--9--9--9-/11-11--11-8--8--8-/9------------------------------------------|
    ^ All Harmonics ^
I think Eric sits back here and uses a wah wah effect, not sure

e|---------------------------------------------------------------------------|
B|---------------------------------------------------------------------------|
G|-6-6-6-6-6-6-6-6-6-6-6-6-6-6-6-6-------------------------------------------|
D|-8-8-8-8-8-8-8-8-8-8-8-8-8-8-8-8-9-9-9-9-9-9-9-9-9-9-9-9-9-9-9-9-----------|
A|-8-8-8-8-8-8-8-8-8-8-8-8-8-8-8-8-9-9-9-9-9-9-9-9-9-9-9-9-9-9-9-9-----------|
D|---------------------------------9-9-9-9-9-9-9-9-9-9-9-9-9-9-9-9-----------|

e|---------------------------------------------------------------------------|
B|---------------------------------------------------------------------------|
G|-6-6-6-6-6-6-6-6-6-6-6-6-6-6-6-6-------------------------------------------|
D|-8-8-8-8-8-8-8-8-8-8-8-8-8-8-8-8-9-9-9-9-9-9-9-9-6--6--6-------------------|   x2
A|-8-8-8-8-8-8-8-8-8-8-8-8-8-8-8-8-9-9-9-9-9-9-9-9-6--6--6-------------------|
D|---------------------------------9-9-9-9-9-9-9-9-6--6--6-------------------|

e|---------------------------------------------------------------------------|
B|---------------------------------------------------------------------------|
G|-6-6---6-6-6-6----------------------6-6---6-6-6-6--------------------------|
D|-8-8---8-8-8-8--9-9---9-9--9/15\8---8-8---8-8-8-8--9-9---9-9---------------|
A|-8-8---8-8-8-8--9-9---9-9--9/15\8---8-8---8-8-8-8--9-9---9-9---------------|
D|----------------9-9---9-9--9/15\8------------------9-9---9-9---------------|


e|---------------------------------------------------------------------------|
B|---------------------------------------------------------------------------|
G|-6-6-6---6-6-----------------------6-6-6---6-6-----------------------------|
D|-8-8-8---8-8--9-9-9---9-9-9-9-9-9--8-8-8---8-8--x-x-x-x-x-x-x-x-6~---------|
A|-8-8-8---8-8--9-9-9---9-9-9-9-9-9--8-8-8---8-8--x-x-x-x-x-x-x-x-6~---------|
D|--------------9-9-9---9-9-9-9-9-9---------------x-x-x-x-x-x-x-x-6~---------|
                        ^Play Fast^
e|---------|-----------------------------------------------------------------|
B|---------|-----------------------------------------------------------------|
G|-13-13\10|--9--9--9--9--9--9--9--9--9-/11-11-11\10-10-10-10/----9-/11-11-11|
D|-x--x\x-|--x--x--x--x--x--x--x--x--x-/x--x--x-\x--x--x-x-/----x-/x--x--x-|   x3
A|-11-11\8-|--11-11-11-11-11-11-11-11-11/13-13-13\8--8--8--8-/----11/13-13-13|
D|---------|-----------------------------------------------------------------|
           ^ Repeat from here                        To here ^ ^Play after 3rd time

e|---------------------------------------------------------------------------|
B|---------------------------------------------------------------------------|
G|-6-6-6-6-6-6-6-6-6-6-6-6-6-6-6-6-------------------------------------------|
D|-8-8-8-8-8-8-8-8-8-8-8-8-8-8-8-8-9-9-9-9-9-9-9-9-9-9-9-9-9-9-9-9-----------|
A|-8-8-8-8-8-8-8-8-8-8-8-8-8-8-8-8-9-9-9-9-9-9-9-9-9-9-9-9-9-9-9-9-----------|
D|---------------------------------9-9-9-9-9-9-9-9-9-9-9-9-9-9-9-9-----------|

e|---------------------------------------------------------------------------|
B|---------------------------------------------------------------------------|
G|-6-6-6-6-6-6-6-6-6-6-6-6-6-6-6-6-------------------------------------------|
D|-8-8-8-8-8-8-8-8-8-8-8-8-8-8-8-8-9-9-9-9-9-9-9-9-6--6--6-------------------|   x2
A|-8-8-8-8-8-8-8-8-8-8-8-8-8-8-8-8-9-9-9-9-9-9-9-9-6--6--6-------------------|
D|---------------------------------9-9-9-9-9-9-9-9-6--6--6-------------------|


e|---------------------------------------------------------------------------|
B|---------------------------------------------------------------------------|
G|-6-6---6-6-6-6------------------6-6---6-6-6-6/13\6-------------------------|
D|-8-8---8-8-8-8--9-9---6-6-6-6---8-8---8-8-8-8/13\6-6-6--------------------|
A|-8-8---8-8-8-8--9-9---6-6-6-6---8-8---8-8-8-8/11\8-6-6--------------------|
D|----------------9-9---6-6-6-6-----------------------6-6--------------------|
Related for Another Day Down - Spin Him Around - Erics Part tab