Song name
# A B C D E F G H I J K L M N O P Q R S T U V W X Y Z

Misc Unsigned Bands - Cross Flag - Cross Flag Boogie tab

Here is Devo's Solo in CFB (Cross Flag Boogie) It's pretty amazing!

E|--------------------------------------------------------|
B|--------------------------------------------------------|
G|-------11-----------------------------------------------|
D|----15----11~-------------------------------------------|
A|-12------------10p6-10p6-10p7-10p6--------------------5-|
E|------------------------------------9-10\---1--3-1-3----|

E|-----------------------------------------------|
B|---------------------------------------15-15~/-|
G|-------12---------------------------14---------|
D|----12----12----12----12----12-12~-------------|
A|-12----------15----15----15--------------------|
E|-----------------------------------------------|

E|--------------------------------------------------------|  (This is when 
B|--------------------------------------------------------|   Clayton does
G|-------10-----------------------------------------------|   the amazing
D|----10----11~-------------------------------------------|   Cross-overs)
A|-12------------10p8-10p8-10p8-10p8--------------------5-|
E|------------------------------------10-11\---3--1-3-1---|

E|-----------------------------------------------|
B|---------------------------------------13-15~/-|
G|-------11---------------------------14---------|
D|----12----12----10----10----10-12~-------------|
A|-12----------12----12----12--------------------|
E|-----------------------------------------------|

E----------------------------------------------------------|
B------13----17-13----15-13----15-13----15-13----15-13-----|
G---14----14-------14-------19-------14-------14-------14--|
D----------------------------------------------------------|
A----------------------------------------------------------|
E----------------------------------------------------------|

E|----------------------------------------------------------|
B|----------------------------------------------------------|
G|------12--------------------------------------------------|
D|---12----12~----10----10----10----------------10----------|
A|-12----------6----12----11----10-8--------12----10-8-----|
E|-------------------------------------9-8-------------10-|

E|------------------------------------------------|
B|---------------------------------------13-15b~/-|
G|-------10---------------------------16----------|
D|----10----12------10----10----10-12b~-------------|
A|-12----------12/4----12----12---------------------|
E|------------------------------------------------|

E|--------------------------------------------------------|
B|--------------------------------------------------------|
G|-------10-----------------------------------------------|
D|----10----12~-------------------------------------------|
A|-12------------10p8-10p8-10p8-10p8--------------------5-|
E|------------------------------------10-9\---4--1-4--1---|

E|----------------------------------------------|    \
B|----10h13p10---10h13p10---10h13p10---10h13p10-|    |
G|-b12--------b12--------b12--------b12---------| x8 |
D|----------------------------------------------|    |
A|----------------------------------------------|    |
E|----------------------------------------------|    |
                                                     |
e|-11h15-16-13h15-9-11h15-16-11h15-15-|             |
B|-------------------------------------|             | - use phaser for 
G|-------------------------------------| x4          |   these parts.
D|-------------------------------------|             |   Up until break
A|-------------------------------------|             |   shown below.
E|-------------------------------------|             |
                                                    / 
e|------12-----------------------------------------|-------------|
B|-12h15--15-13-----10h14p10---10h13p10------------|-------------|
G|---------------b11--------b11--------b11~~p7----|-------------|
D|----------------------------------------------12~|--*tremelo*--|
A|-------------------------------------------------|-------------|
E|-------------------------------------------------|-------------|


Tap to rate this tab
 
# A B C D E F G H I J K L M N O P Q R S T U V W X Y Z