Song name
# A B C D E F G H I J K L M N O P Q R S T U V W X Y Z

Misc Unsigned Bands - Open 91- Hidden In A G-string tab

-------------------------------------------------------------------------------
			     Hidden In A G-String- Open 91
-------------------------------------------------------------------------------
Tabbed by: Tim LaMay
Email: Snackpak888@yahoo.com

Tuning: Standard

Intro/verse
e|---------------------------------------------------------------------------|
B|---------------------------------------------------------------------------|
G|---------------------------------------------------------------------------|
D|---------------------------------------------------------------------------|
A|---------------------------------------------------------------------------|
E|00000000323232000000003232230000000032323200000000323223-------------------|
  xxxxxxxx      xxxxxxxx      xxxxxxxx      xxxxxxxx

Chorus pt 1
e|---------------------------------------------------------------------------|
B|---------------------------------------------------------------------------|
G|---------------------------------------------------------------------------|
D|24554-24554-24554-77-99----------------------------------------------------|
A|24554-24554-24554-77-99----------------------------------------------------|
E|02332-02332-02332-55-77----------------------------------------------------|

part 2
e|---------------------------------------------------------------------------|
B|---------------------------------------------------------------------------|
G|---------------------------------------------------------------------------|
D|24554-24554-24554-77-55----------------------------------------------------|
A|24554-24554-24554-77-55----------------------------------------------------|
E|02332-02332-02332-55-33----------------------------------------------------|

Solo
e|---7-9-12-9-11-13-13-9---------------7-9-12-9-11-13-13-9-------------------|
B|9-8-------------------11-9-12~---9-8---------------------11-9-12~----------------|
G|---------------------------------------------------------------------------|
D|---------------------------------------------------------------------------|
A|---------------------------------------------------------------------------|
E|---------------------------------------------------------------------------|

e|------------------------------------7-9-12-9-11-13-13-9--------------------|
B|---7-9-12-9-11-13-13-9-----------9-8--------------------11-9-12~-----------|
G|9-8--------------------11-9-12~--------------------------------------------|
D|---------------------------------------------------------------------------|
A|---------------------------------------------------------------------------|
E|---------------------------------------------------------------------------|



| /  slide up
| \  slide down
| h  hammer-on
| p  pull-off
| ~  vibrato
| +  harmonic
| x  Mute note
===============================================================================
Tap to rate this tab
 
# A B C D E F G H I J K L M N O P Q R S T U V W X Y Z