Song name
# A B C D E F G H I J K L M N O P Q R S T U V W X Y Z

Misc Unsigned Bands - Open 91- The Wet Dreams Of Rip Van Winkle tab

-------------------------------------------------------------------------------
			     Wet Dreams of Rip Van Winkle- Open 91
-------------------------------------------------------------------------------
Tabbed by:Tim LaMay
Email:Snackpak888@yahoo.com

Tuning:Standard


Intro
e|---------------------------------------------------------------------------|
B|---------------------------------------------------------------------------|
G|---------------------------------------------------------------------------|
D|20----20------20------20---------------------------------------------------|
A|--20----20------20------20-------------------------------------------------|
E|----30----302~----30------302~---------------------------------------------|

Verse:
e|---------------------------------------------------------------------------|
B|---------------------------------------------------------------------------|
G|---------------------------------------------------------------------------|
D|---------------------------------------------------------------------------|
A|---------------------------------------------------------------------------|
E|877777877777877777---53535-------------------------------------------------|
  xxxxxxxxxxxxxxxxxx

Chorus
e|---------------------------------------------------------------------------|
B|---------------------------------------------------------------------------|
G|---------------------------------------------------------------------------|
D|0-6-5-3-5-0-6-5-99-77------------------------------------------------------|
A|0-6-5-3-5-0-6-5-99-77------------------------------------------------------|
E|0-6-5-3-5-0-6-5-99-77------------------------------------------------------|

e|---------------------------------------------------------------------------|
B|---------------------------------------------------------------------------|
G|---------------------------------------------------------------------------|
D|--55---9--7-44------44-----------------------------------------------------|
A|--55---9--7-44------44-----------------------------------------------------|
E|0-33---7--5-22-0000-22-----------------------------------------------------|
              xx


| /  slide up
| \  slide down
| h  hammer-on
| p  pull-off
| ~  vibrato
| +  harmonic
| x  Mute note
===============================================================================
Tap to rate this tab
# A B C D E F G H I J K L M N O P Q R S T U V W X Y Z