Song name
# A B C D E F G H I J K L M N O P Q R S T U V W X Y Z

Misc Unsigned Bands - The Wallmart Band - We Ride The Bus tab

Band  : The Wallmart Band
Album : Shit Stains In The Chimney
Song  : We Ride The Bus

Hello This THe Bassist From Twb (The Wallmart Band) Bumpo these tabs are 100% Correct
im kind in the band. DUH! This song has only one guitar in it. usually we have 2 guitars
our songs but this is b4 we had our second guitarist. So Here You Go. Theres Not Much. 
justin sings it just a couple power chords.

Bass Plays THis THrough THe WHole SOng

G|----5--7--5--7--5--7--5-------------|
D|--00-00-00-00-00-00-00--------------|
A|------------------------------------|
E|------------------------------------|

Guitar

No Intro
xxxxxxxx

Verse1

Jude : Who Rides The Bus (No GUitar)


Justin : We Ride THe BUs

e|------------------------------------|
B|------------------------------------|
G|------------------------------------|
D|-------7---7----9---9---------------|
A|-------7---7----9---9---------------|
E|-------5---5----7---7---------------|

Jude : Who Rides The BUs (no guitar)

Justin : Wallmart Band rides the bus

e|------------------------------------|
B|------------------------------------|
G|------------------------------------|
D|---------7-7----7------9---9----9---|
A|---------7-7----7------9---9----9---|
E|---------5-5----5------7---7----7---|

Jude : Why DO We RIde The bus (no guitar)

Justin : to pick up the hoes thats why we ride the bus

e|------------------------------------------------------|
B|------------------------------------------------------|
G|------------------------------------------------------|
D|-------7---7---7--7---7-----9----9---9---9----9--9----|
A|-------7---7---7--7---7-----9----9---9---9----9--9----|
E|-------5---5---5--5---5-----7----7---7---7----7--7----|

Chorus

Jude : Wallmart band Is Better Than THe Other Band (no Guitar)

Justin : Wallmart band Is Better Than THe Other Band

e|--------------------------------------------------|
B|--------------------------------------------------|
G|--------------------------------------------------|
D|--------7--7-----7---7---7-9----9---9-----9----9--|
A|--------7--7-----7---7---7-9----9---9-----9----9--|
E|--------5--5-----5---5---5-7----7---7-----7----7--|

Jude : Wallmart band Is Better Than THe Other Band (no Guitar)

Justin : Wallmart band Is Better Than THe Other Band

e|--------------------------------------------------|
B|--------------------------------------------------|
G|--------------------------------------------------|
D|--------7--7-----7---7---7-9----9---9-----9----9--|
A|--------7--7-----7---7---7-9----9---9-----9----9--|
E|--------5--5-----5---5---5-7----7---7-----7----7--|

Verse2

Jude : Who Rides The Bus (No GUitar)


Justin : We Ride THe BUs

e|------------------------------------|
B|------------------------------------|
G|------------------------------------|
D|-------7---7----9---9---------------|
A|-------7---7----9---9---------------|
E|-------5---5----7---7---------------|

Jude : Who Rides The BUs (no guitar)

Justin : Wallmart Band rides the bus

e|------------------------------------|
B|------------------------------------|
G|------------------------------------|
D|---------7-7----7------9---9----9---|
A|---------7-7----7------9---9----9---|
E|---------5-5----5------7---7----7---|

Jude : Why DO We RIde The bus (no guitar)

Justin : to tour all over other band thats why we ride the bus

e|------------------------------------------------------------|
B|------------------------------------------------------------|
G|------------------------------------------------------------|
D|-------7---7----7---7-----7-----9----9---9---9----9--9---9--|
A|-------7---7----7---7-----7-----9----9---9---9----9--9---9--|
E|-------5---5----5---5-----5-----7----7---7---7----7--7---7--|


Chorus

Jude : Wallmart band Is Better Than THe Other Band (no Guitar)

Justin : Wallmart band Is Better Than THe Other Band

e|--------------------------------------------------|
B|--------------------------------------------------|
G|--------------------------------------------------|
D|--------7--7-----7---7---7-9----9---9-----9----9--|
A|--------7--7-----7---7---7-9----9---9-----9----9--|
E|--------5--5-----5---5---5-7----7---7-----7----7--|

Jude : Wallmart band Is Better Than THe Other Band (no Guitar)

Justin : Wallmart band Is Better Than THe Other Band

e|--------------------------------------------------|
B|--------------------------------------------------|
G|--------------------------------------------------|
D|--------7--7-----7---7---7-9----9---9-----9----9--|
A|--------7--7-----7---7---7-9----9---9-----9----9--|
E|--------5--5-----5---5---5-7----7---7-----7----7--|

Breakdown

Jude: WALLMARTBAND IS BEST BAND IN THE WORLD, WALLMARTBAND IS THE BAND TO BE,
TELLS NIGGAS TO CHILL, WALLMARTBAND IS THE BAND THAT KILLS NIGGAS FOR CHEAP (no guitar)

FInal Chorus

Jude : Wallmart band Is Better Than THe Other Band (no Guitar)

Justin : Wallmart band Is Better Than THe Other Band

e|--------------------------------------------------|
B|--------------------------------------------------|
G|--------------------------------------------------|
D|--------7--7-----7---7---7-9----9---9-----9----9--|
A|--------7--7-----7---7---7-9----9---9-----9----9--|
E|--------5--5-----5---5---5-7----7---7-----7----7--|

Jude : Wallmart band Is Better Than THe Other Band (no Guitar)

Justin : Wallmart band Is Better Than THe Other Band

e|--------------------------------------------------|
B|--------------------------------------------------|
G|--------------------------------------------------|
D|--------7--7-----7---7---7-9----9---9-----9----9--|
A|--------7--7-----7---7---7-9----9---9-----9----9--|
E|--------5--5-----5---5---5-7----7---7-----7----7--|
Tap to rate this tab
# A B C D E F G H I J K L M N O P Q R S T U V W X Y Z