Song name
# A B C D E F G H I J K L M N O P Q R S T U V W X Y Z

Misc Unsigned Bands - The Avery - Sound Asleep tab

Okay, I'm doing this to be nice, hahaha. But here is my new song, "Sounds of Sleep." It
be played on an acoustic guitar to get the full feel of the song. Also, you need to be
playing lead and rhythm at the same time (you'll see what I'm talking about in a minute) 
you also have to be brave and venture outside of the norm as far as tuning goes. With
said, I give you all "Sound Asleep."

TUNING: (LOW TO HIGH)
        Eb,G,D,G,Bb,D

I- The Intro

Chord 1:

|-0-0-0-0-0-0-0-0-|-0-0-0-0-3-3-3-3|
|-4-4-4-4-4-4-4-4-|-0-0-0-0-0-0-0-0|
|-0-0-0-0-0-0-0-0-|-5-5-5-5-0-0-0-0| X2
|-0-0-0-0-0-0-0-0-|-0-0-0-0-0-0-0-0|
|-0-0-0-0-0-0-0-0-|-0-0-0-0-0-0-0-0|
|-4-4-4-4-4-4-4-4-|-4-4-4-4-4-4-4-4|

Chord 2:

|-0-0-0~~--0-0---3s5-5-5-0~-0-0~-0-0-0-0-0---0-0-0-0-0-0-0-0-0-0~~--|
|-4-4-4~~--4-4---4~~-0-0-4~-0-0~-0-0-0-0-0---0-0-0-0-0-0-0-0-0-0~~--|
|-0-0-0~~--0-0---0~~-0-0-0~-3-3~-3s5-5-5-3---5p0-3p0-5p3-5s7s5s3~~--|
|-0-0-0~~--0-0---0~~-----0~-0-0~-0-0-0-0-0---0-0-0-0-0-0-0-0-0-0~~--|
|-0-0-0~~--0-0---0~~-----0~-0-0~-0-0-0-0-0-0-0-0-0-0-0-0-0-0-0-0~~--|
|-0-0-0~~--0-0---0~~-----0~-0-0~-0-0-0-0-0-0-0-0-0-0-0-0-0-0-0-0~~-0|

(Play back and Chord 1 & 2 back and forth 4X)

II- The Verses

|-0-0-0~--0-0-0~--|-0-0-0~--0-0-0~--|
|-4-4-4~--4-4-4~--|-4-4-4~--4-4-4~--|
|-0-0-0~--0-0-0~--|-5-5-5~--5-5-5~--|
|-0-0-0~--0-0-0~--|-0-0-0~--0-0-0~--| X6
|-0-0-0~--0-0-0~--|-0-0-0~--0-0-0~--|
|-4-4-4~--4-4-4~--|-0-0-0~--0-0-0~--|

III- The First Breakdown (Could Be Called The Chorus)

Part 1:

|---0~--0~--0~--0~|---0~--0~--0~--0~|
|--0---0---0---0--|--0---0---0---0--|
|-8---8---8---8---|-7---7---7---7---|
|-----------------|-----------------|
|-----------------|-----------------|
|-----------------|-----------------|

Part 2:

|---0~--0~--0~--0~|---0~--0~--0~--0~|
|--0---0---0---0--|--0---0---0---0--|
|-0---0---2---3---|-3---3---2---2---|
|-----------------|-----------------|
|-----------------|-----------------|
|-----------------|-----------------|

IV- Full Breakdown (Listen To Song For Strum Pattern)

|-0~--|-0~--|
|-0~--|-0~--|
|-0~--|-0~--| (The Stum Pattern for this is too awkward to tab)
|-8~--|-6~--|  (So Listen to the song on Myspace.com/theaverytx to)
|-0~--|-0~--|   (Hear how to play it)
|-7~--|-0~--|

That is all of the parts of the song excluding the bridge's build up and some minor ad
here and there. I'll tab out the bridge later, but until then, if you want to know how to
all of the extra stuff in the song, just leave a comment on the tab and tell me what 
you want to learn.

Hope you enjoi!

The Avery
Tap to rate this tab
# A B C D E F G H I J K L M N O P Q R S T U V W X Y Z