Song name
# A B C D E F G H I J K L M N O P Q R S T U V W X Y Z

Misc Unsigned Bands - Marvel Heights - Feeling tab

Sorry the tab is not finished, i could not get the rest of the song, doing my best 
=p.
I just figured it out while fulling around.

Neil:
E:---------------------------------------------------------|
B:---------------------------------------------------------|
G:----77---------77---------77-----33----55----------------|
D:----77---------77---------77-----33----55----------------|    (x2)
A:----55---------55---------55-----11----33----------------|
E:---------------------------------------------------------|

John Joe: (Neil keeps playing the above while this is played)
E:-5--3----------------------5--3---------------------------|
B:-------6--3--6--3--1--3----------6--3--6^-----------------|
G:----------------------------------------------------------|    (x2)
D:----------------------------------------------------------|
A:----------------------------------------------------------|
E:----------------------------------------------------------|

Thanks to lewis for showing me the way i was doing it in the first place was wrong. I'VE 
IT RIGHT NOW !
Tap to rate this tab
 
# A B C D E F G H I J K L M N O P Q R S T U V W X Y Z