Song name
# A B C D E F G H I J K L M N O P Q R S T U V W X Y Z

Misc Unsigned Bands - Our Last Regrert - Locke Can Do Anything tab

yo this is my firt tab but since i wrote the song i know its 100% correct

E= 1 1/2 down to Dflat
A= 1/2 down to Aflat
D= 1/2 down to Dflat
G= 2 1/2 down to Dflat
B= 1 1/2 up to Dflat
E= 1 1/2 down to Dflat

intro pt. 1
-------4-------4-------2-------0---------------------------------------------|
-----0---0---0---0---0---0---0---0-------------------------------------------|
---0-------5-------4-------5------------x4-----------------------------------|
-----------------------------------------------------------------------------|
-----------------------------------------------------------------------------|
-----------------------------------------------------------------------------|

intro pt. 2
--0-0-0-0-0-0-0-0-0-0-0-0-0-0-0-0-0------------------------------------------|
--4-4-4-4-4/5-5-5-5-5/4-4-4-4-4/2-2------------------------------------------|
--0-0-0-0-0-0-0-0-0-0-0-0-0-0-0-0-0------x2----------------------------------|
-----------------------------------------------------------------------------|
-----------------------------------------------------------------------------|
-----------------------------------------------------------------------------|

verse
-----0-0-0-0-0-0-0-0-0-0-0-0-0-0-0-------------------------------------------|
-----0-0-5/7-7-7-7-7/5-5-5-5-5/4-4-------------------------------------------|
-----0-0-0-0-0-0-0-0-0-0-0-0-0-0-0--------x4---------------------------------|
-----0-0-0-0-0-0-0-0-0-0-0-0-0-0-0-------------------------------------------|
-----0-0-7/9-9-9-9-9/7-7-7-7-7-0-0-------------------------------------------|
-----0-0-0-0-0-0-0-0-0-0-0-0-0-0-0-------------------------------------------|

chorus
-----12------4------5---------------------------------------------------------|
------0------0------0---------------------------------------------------------|
------0------0------0---------------------------------------------------------|
------0--x8--0---x4-0--x4-----(x4)--------------------------------------------|
------x------x------x---------------------------------------------------------|
-----12------4------5---------------------------------------------------------|


--------7-------0-----0------12----------------------------------------------|
--------0-------4-----5-------0----------------------------------------------|
--------0-------0-----0-------0----------------------------------------------|
--------0--x8---x--x4-x--x4---0--x8------------------------------------------|
--------x-------4-----5-------x----------------------------------------------|
--------7-------0-----0------12----------------------------------------------|


intro pt. 1
intro pt. 2
verse
chorus
verse
inro pt. 2
intro pt. 1
Tap to rate this tab
# A B C D E F G H I J K L M N O P Q R S T U V W X Y Z