Guitaretab - guitar tabs
Song name
# A B C D E F G H I J K L M N O P Q R S T U V W X Y Z

Misc Unsigned Bands - Associate - Rough tab

Tabbed by: ASSOCIATE
Email: www.myspace.com/associate391
Tuning: E,A,D,G,B,e (Standard)

                          ASSOCIATE - ROUGH
                       FUN FOR THE WHOLE GANG E.P
                          (solo not tabbed)

MAIN RIFF / INTRO

e|-----------------------------------------------------------------|
B|-----------------------------------------------------------------|
G|-----------------------------------------------------------------|
D|------8-------8---------8-----7----------7----8--7---8--7--8--7--|
A|10-10----10-10---10-8-8----8------8---6-6---6---6---6------------|
E|-----------------------------------------------------------------|


e|-----------------------------------------------------------------|
B|-----------------------------------------------------------------|
G|-----------------------------------------------------------------|
D|------8-----10--8---------8-----7---------7--- 8--7---8--7--8--7-|
A|10-10----10--------10-8-8----8----8---6-6----6---6---6-----------|
E|-----------------------------------------------------------------|

VERSE/SOLO CHORDS
                            (1st time)(2nd time)
e|---------------------------|--------|--------|-------------------|
B|---------------------------|--------|--------|-------------------|
G|----------33--33-----------|--------|-55--55-|-------------------|
D|-55--55---33--33---33--33--|-55--55-|-55--55-|-------------------|
A|-55--55---11--11---33--33--|-55--55-|-33--33-|-------------------|
E|-33--33------------11--11--|-33--33-|--------|-------------------|

PRE CHOURS RIFF
[ Tab from: http://www.guitaretab.com/m/misc-unsigned-bands/82132.html ]
e|-----------------------------------------------------------------|
B|-----------------------------------------------------------------|
G|-----------------------------------------------------------------|
D|-----10-8-7-8-7-5------------------------------------------------|
A|---8-------------------------------------------------------------|
E|-----------------------------------------------------------------|

CHOURS

e|-----------------------------------------------------------------|
B|-----------------------------------------------------------------|
G|---10-------12-------7-------------------------------------------|
D|---10-(x6)--12-(x2)--7-(x8)--55--33---8------10------------------|
A|---8--------10-------5-------55--33---8-(x6)-10-(x2)-------------|
E|-----------------------------33--11---6------8-------------------|

PRE SOLO MELODY

e|-----------------------------------------------------------------|
B|-10~---10h11p10--8--10-11-10-11-13~--11-10-11-10-8-10-8-10-11----|
G|-----------------------------------------------------------------|
D|-----------------------------------------------------------------|
A|-----------------------------------------------------------------|
E|-----------------------------------------------------------------|

e|---------------------|
B|-13~--11-10-11-10-8--|
G|---------------------|
D|---------------------|
A|---------------------|
E|---------------------|

FINISH ON

e|--------------------------------------------------------------------------|
B|--------------------------------------------------------------------------|
G|--------------------------------------------------------------------------|
D|-----(5)------------------------------------------------------------------|
A|-----(5)------------------------------------------------------------------|
E|-----(3)------------------------------------------------------------------|


For a listen of the song visit. www.myspace.com/associate391.
More songs, videos and bio are also there for u to enjoy.

Cheers

============================================================================
Related for Associate - Rough tab
×
Associate - Rough