Song name
# A B C D E F G H I J K L M N O P Q R S T U V W X Y Z

Misc Unsigned Bands - No Joke - Cosmo tab

|--------------------------------------------------------------|
|--------------------------------------------------------------|
|--------------------------------------------------------------|
|--------------------------0-----------------------------------|
|-------8-10-8-10-8-10---8-10-8-10-8-10------------------------|
|--------------------------------------------------------------| 



|--------------------------------------------------------------|
|--------------------------------------------------------------|
|--------------------------------------------------------------|
|--------------------------0-----------------------------------|
|-------8-h10-8-h10-8-h10---8-h10-8-h10-8-h10------------------|
|--------------------------------------------------------------|




|--------------------------------------------------------------|
|--------------------------------------------------------------|
|--------------5---7---9---12-14-------------------------------|
|------------0---0---0---0---0---------------------------------|
|----------0---0---0---0---0-----------------------------------|
|--------------------------------------------------------------| x3




|---------------------0-0-0-----------------------------------|
|---------------------0-0-0-----------------------------------|
|-------------3-3-3-2-2-2-3-3-3-------------------------------|
|-------------3-3-3---------3-3-3-----------------------------|
|-------------4-4-4---------3-3-3-----------------------------|
|-------------------------------------------------------------| x5




|--------------------------------------------------------------|
|--------------------------------------------------------------|
|--------1-2-----3-4-------------------------------------------|
|------1----2---3---4------------------------------------------|
|----1-------2-3-----4-5-6-7-8---------------------------------|
|--------------------------------------------------------------| x6
Tap to rate this tab
 
# A B C D E F G H I J K L M N O P Q R S T U V W X Y Z