Song name
# A B C D E F G H I J K L M N O P Q R S T U V W X Y Z

Misc Unsigned Bands - No Joke - Trinity tab

~=VIRBRATO
^=BEND UP


|--22222-----44444------22222--------44444--------|
|-------33333-----33333---------33333---------0000|
|-------------------------------------------------|
|-------------------------------------------------|
|-------------------------------------------------|
|-------------------------------------------------|





|-----------------------------|
|-----------------------------|
|-----------------------------|
|-----2-2-2-2-2---4-4-4-------|
|-----2-2-2-2-2---4-4-4-------|
|-----3-3-3-3-3---5-5-5-------|x3




|-----------------------------|
|-----------------------------|
|-----------------------------|
|-----3~-----5~------7~-------|
|---0------0------0-----------|
|-0------0------0-------------|x2



solo
|-----------------------------|
|-----------------------------|
|------5--7----7--5-----------|
|------------9----------------|
|-----------------------------|
|-----------------------------|




|-----------------------------|
|-----------------------------|
|-----------------------------|
|-------3-3-3-3---------------|
|-----4---------5-------------|
|--4--------------5-----------|




|----------------------------------|
|--4-5-6-5-4-----------------------|
|------------7-8-9-8-7-------------|
|-----------------------10-11-12---|
|----------------------------------|
|----------------------------------|




|--------------8-8-8-8--------|
|--------------8-8-8-8--------|
|--------------8-8-8-8--------|
|----5-5-5-5------------------|
|----6-6-6-6------------------|
|----7-7-7-7------------------|




|-----------------------------|
|-----------------------------|
|-----------------------------|
|-----------------------------|
|--5~--4~--7~--8^-------------|
|-----------------------------| 
Tap to rate this tab
 
# A B C D E F G H I J K L M N O P Q R S T U V W X Y Z