Song name
# A B C D E F G H I J K L M N O P Q R S T U V W X Y Z

Misc Unsigned Bands - Plan Bs - In The Grave tab

     waz up ultimate guitar peoples.
     this is a new intro of a song i made up today
     hope ya like it

  E|--------------------------------------------------|
  B|--------------------------------------------------|
  G|--------------------------------------------------|
  D|--------------------------------------------------|     (3 times)
  A|-5-5-5-5-5-5-5-5-7-7-7-7-7-7-7-7-9-9-9-9-0-0-0-0-0|
  E|-3-3-3-3-3-3-3-3-5-5-5-5-5-5-5-5-7-7-7-7-8-8-8-8-8|

  I play this while my friend does this

  E|-1-1-1-1-1-1-1-1-1-1-1-1-1-1-1-1-1-1-1-1-1-1-1-1-1|
  B|-2-2-2-2-2-2-2-2-2-2-2-2-2-2-2-2-2-2-2-2-2-2-2-2-2|
  G|--------------------------------------------------|
  D|--------------------------------------------------|     (3 times
  A|--------------------------------------------------|
  E|--------------------------------------------------|



      the bass is playing a low E for the whole thing
      the drums have a steady drum roll on th symboles
      the eletric pino plays nothing till the last note and he plays a Middle C on that
Tap to rate this tab
 
# A B C D E F G H I J K L M N O P Q R S T U V W X Y Z