Song name
# A B C D E F G H I J K L M N O P Q R S T U V W X Y Z

Misc Unsigned Bands - Halogenix - Song 1 tab

-------------------------------------------------------------------------------
			     Song #1- Halogenix
-------------------------------------------------------------------------------
Tabbed by:retardboy
Email:

Tuning:normal

e|---------------------------------------------------------------------------|
B|---------------------------------------------------------------------------|
G|--------0--------0---------------------------------------------------------|
D|------4---4----7---7------0--------0---------------------------------------|
A|----2--------5----------7---7----4---4-------------------------------------|
E|----------------------5--------2-------------------------------------------|


===============================================================================
Tap to rate this tab
 
# A B C D E F G H I J K L M N O P Q R S T U V W X Y Z