Song name
# A B C D E F G H I J K L M N O P Q R S T U V W X Y Z

Misc Unsigned Bands - Haista Vittu - Kolmannen Asteen Turbomuna tab

Help us improve GuitareTab! Take a short survey!
                         Kolmannen asteen turbomuna
- = Palm Mute
/ = Slide
~ = Let Note Ring
h = Hammer On
P = Pull Off



 E|-----------------------------------------------|
 B|-----------------------------------------------|
 G|-----------------------------------------------| X4
 D|-----------------------------------------------|
 A|-12------109-12------11109-12------9910-12-----|
 D|0--1312/9---0--1312/9-----0--1312/9----0--1312-|


|5--8| for the 1st and 3rd time. |7--10| for the 2nd and 4th time.
|5--8|                           |7--10|
|5--8|                           |7--10|

|----------------------------------------|3-3-33-|
|----------------------------------------|6-6-66-| this ending,
|----------------------------------------|5-5-55-| 1st & 3rd time
|----------------------------------------|3-3-33-|
|----------------------------------------|3-3-33-|
|0-000-0-00-0h1p1-0h1p1-0h1p1-0-000-0-00-|3-3-33-|
   ---   --                     ---   --

|----------------------------------------|--------|
|----------------------------------------|--------| This ending
|----------------------------------------|--------| 2nd & 4th time
|----------------------------------------|--------|
|----------------------------------------|875----5|
|0-000-0-00-0h1p1-0h1p1-0h1p1-0-000-0~---|---8753-|

These Last 2 Riffs Are Played 4 Times.





|------------------------------------------|
|------------------------------------------|
|------------------------------------------|  X 4
|------------------------------------------|
|------------------------------------------|
|000000000 000000000-111111111-333333353635|
 --------- --------- --------- -------


|------------------------------------------|
|------------------------------------------|
|------------------------------------------|  X 2
|------------------------------------------|
|------------------------------------------|
|000000000000000000001111111111333333353635|


|------------------------------------------|
|------------------------------------------|
|------------------------------------------|
|------------------------------------------| X 3
|---------------------------------5-----543|
|0---000-0--0---000-0--0---000-0---875/3---|
     ---        ---        ---


|------------------------------------------|
|------------------------------------------|
|------------------------------------------|
|------------------------------------------| X 1
|---------------------------------875-----5|
|0---000-0--0---000-0--0---000-0-----875/3-|  


|----------------------------------------|3-3-33-|
|----------------------------------------|6-6-66-| this ending,
|----------------------------------------|5-5-55-| 1st & 3rd time
|----------------------------------------|3-3-33-|
|----------------------------------------|3-3-33-|
|0-000-0-00-0h1p1-0h1p1-0h1p1-0-000-0-00-|3-3-33-|
   ---   --                     ---   --

|----------------------------------------|--------|
|----------------------------------------|--------| This ending
|----------------------------------------|--------| 2nd & 4th time
|----------------------------------------|--------|
|----------------------------------------|875----5|
|0-000-0-00-0h1p1-0h1p1-0h1p1-0-000-0~---|---8753-|


|----------------------------------------|--------|
|----------------------------------------|--------| 
|----------------------------------------|--------| 
|----------------------------------------|--------| X2
|----------------------------------------|5----543|
|0-000-0-00-0h1p1-0h1p1-0h1p1-0-000-0~---| 8753---|


|--------|
|--------|  This Is The Riff You PLay last after the pull offs.
|--------| 
|--------|
|875----5|
|---8753-|





Related for Haista Vittu - Kolmannen Asteen Turbomuna tab