Guitaretab - guitar tabs
Song name
# A B C D E F G H I J K L M N O P Q R S T U V W X Y Z

Misc Unsigned Bands - Incision - Broken tab

INCISION-BROKEN-


|---------------------------------------------------------------------|
|---------------------------------------------------------------------|
|---------------------------------------------------------------------|
|---------------------------------------------------------------------|
|----------222222222--------33333333--------22222222--------22223333--|
|--00000000---------00000000--------00000000--------00000000----------|x2

~~~~~~~~~~
VERSE 1
~~~~~~~~~~
|------------------------------|
|------------------------------|
|------------------------------|
|------------------------------|
|-------22222222-----33333333--|
|--3-5-3--------2-4-2----------|x4
[ Tab from: http://www.guitaretab.com/m/misc-unsigned-bands/82212.html ]
~~~~~~~~~~
CHORUS
~~~~~~~~~~
|----------------------------------------------------------------|
|----------------------------------------------------------------|
|----------------------------------------------------------------|
|--99999999999999997777777777777777------------------------------|
|--99999999999999997777777777777777---12-10-9--12-10-9--12-10-9--|
|--77777777777777775555555555555555--9--------9--------9---------|x2

|------------------------------|
|------------------------------|
|------------------------------|
|------------------------------|
|---12-10-9-15-14-12-10~~~~~~--|
|--9---------------------------|PLAY SECOND TIME AFTER FIRST PART.

~~~~~~~~~~~
BRIDGE
~~~~~~~~~~~
|----------------------------------------------------------|
|----------------------------------------------------------|
|----------------------------------------------------------|
|----------------------------------------------------------|
|---------2-2-2-------3-3-3-------2-2-2-------2-2-3-3-2-2--|
|--0-0-0-0-----0-0-0-0-----0-0-0-0-----0-0-0-0-------------|x2

THERES THE PARTS TO THE SONG.MAKE SURE YOU PLAY THIS FAST.
HERES THE ORDER OF THE SONG.

INTRO-x2
BRIDGE-x2
VERSE 1-x4
BRIDGE-x2
CHORUS-x2
BRIDGE-x2
VERSE 2-x2
VERSE 3-x2
BRIDGE-x2
CHORUS-x4
OUTRO(INTRO AGAIN..LET RING OUT)-x2

THERE IT IS MY BAND INCISION'S SONG "BROKEN"
BE SURE TO RATE.THANKS-COLT MILLER

Related for Incision - Broken tab
Advertisement will be closed in 10 seconds