Song name
# A B C D E F G H I J K L M N O P Q R S T U V W X Y Z

Misc Unsigned Bands - Lussedans - Inmarch tab

Såhär börjar den:

E|-----------------------------------------------------------|
B|-----------------------------------------------------------|
G|-----------------------------------------------------------|
D|-----------------------------------------------------------|
A|--------------------4---7---4---5---7---7---4---7---7------|
E|0---5---5----0---5-----------------------------------------|

E|-----------------------------------------------------------|
B|-----------------------------------------------------------|
G|-----------------------------------------------------------|
D|4---------------------------------------4------------------|
A|----5---5---4-----------4---5---5---7-------7---5---4-5-4--|
E|----------------7---7--------------------------------------|

E|-----------------------------------------5-----------------|
B|-----------------------------------------5-----------------|
G|-----------------------------------------6-----------------|
D|-----------------------------------------7-----------------|
A|--------------4--------------------------7-----------------|
E|7---5---4-5-7-----7---4---0---2---4----5-5-----------------| 

Spela det två gånger och spela sen detta:

E|---4---5-5-5---4-----4-4-4---5---4----------5--4--------|
B|5------------------7-----------------7-7-7--------7--7--|
G|--------------------------------------------------------|
D|--------------------------------------------------------|
A|--------------------------------------------------------|
E|--------------------------------------------------------|

E|--------------------------------------------------------|
B|5-4-5---------------------------------------------------|
G|------7-6-7---7---6---4-------4-6-7-6-4---------4-6-4---|
D|--------------------------7-------------7--6--7---------|
A|--------------------------------------------------------|
E|--------------------------------------------------------|

E|--------------------5------|
B|--------------------5------|
G|--------------------6------|
D|6-----4---6----7----7------|
A|--7-----------------7------|
E|--------------------5------|

Spela sedan om allting en gång.
Tap to rate this tab
# A B C D E F G H I J K L M N O P Q R S T U V W X Y Z