Song name
# A B C D E F G H I J K L M N O P Q R S T U V W X Y Z

Misc Unsigned Bands - Flatcat - Beautifull In Venice tab

Band: Flatcat
Song: Beautifull in Venice

Intro:
------
gtr1
e|-------------------|
B|-------------------|
G|-------------------|
D|------4----7----7--|
A|-7----6----5----5--|
E|-5-----------------|2x


gtr2
e|-------------------|
B|-------------------|
G|----------10----7--|
D|----------x-----x--|
A|----------8-----5--|
E|-------------------|

gtr
e|---------------------|--------------------|
B|-11------------------|--------------------|
G|----9-7-6-7/9-7-6-6--|-7-6-7/9-10-9-7-9---|
D|---------------------|--------------------|
A|---------------------|--------------------|
E|-------------------3x|--------------------|1x

Verse
-----

gtr1(>r2?)
e|---------------------|
B|---------------------|
G|---------------------|
D|------4----7-------7-|
A|-7----6----5----2--5-|
E|-5--------------0----|2x
  \__________________/
	   pm

Chorus  = Intro
-------
Verse2  = verse1
------
Bridge
------
gtr1
e|-----------------------------------|
B|-----------------------------------|
G|-----------------------------------|
D|--------7-------------------7----9-|
A|-4-4-4--5----7----2----4----5----7-|
E|-2-1-2-------5----0----2-----------|2x

gtr2 (allen 2e keer)
e|-------------------|
B|-------------------|
G|----------14--13---|
D|----------x---x----|
A|----------12--11---|
E|-------------------|

Chorus
------
Outro
------
gtr1
e|-----------------------|
B|-----------------------|
G|-----------------------|
D|------4----7----7------|
A|-7----6----5----5----7-|
E|-5-------------------5-|

gtr2
e|----------------------------------------------|
B|------------------------2/3---2---5-2---------|
G|-4/6-4-2-4/-6-4-2-2-2-2-----2---2-----4-2-4/6-|
D|----------------------------------------------|
A|----------------------------------------------|
E|----------------------------------------------|

Questions send mail to jannes_meyns@hotmail.com

grtzz
Tap to rate this tab
# A B C D E F G H I J K L M N O P Q R S T U V W X Y Z