Song name
# A B C D E F G H I J K L M N O P Q R S T U V W X Y Z

Misc Unsigned Bands - Brittle - The Pass tab

This is my first tab.
Iv missd a bit but who cares.





(clean)
|--------------------------------------------------------------|
|--------------------------------------------------------------|
|-------10-10-10-10------9-9-9-9--------7-7-7-7----------------|
|--------------------------------------------------------------|
|-------8--8--8--8-------7-7-7-7--------5-5-5-5----------------|
|-0-0---------------0-0------------0-0-------------------------|



(distorted)
"ROOOOAAAAARRRRRRRRR"
|--------------------------------------------------------------|
|--------------------------------------------------------------|
|--------------------------------------------------------------|
|-0-0-0---1-1-1------------------------------------------------|
|-0-0-0---1-1-1------------------------------------------------|
|-0-0-0---1-1-1------------------------------------------------|
  (palm muted)

|--------------------------------------------------------------|
|--------------------------------------------------------------|
|-------10-10-10-10------9-9-9-9--------7-7-7-7----------------|
|--------------------------------------------------------------|
|-------8--8--8--8-------7-7-7-7--------5-5-5-5----------------|
|-0-0---------------0-0------------0-0-------------------------|



|--------------------------------------------------------------|
|--------------------------------------------------------------|
|--------------------------------------------------------------|
|--------------------------------------------------------------|
|--3-2-0----3-0---3-2-0--3-0---3-2-0-0----------5-5-3----------|
|--3-2-0----3-0---3-2-0--3-0---3-2-0-0----------5-5-3----------|
                                     --------->     ---->






|--------------------------------------------------------------|
|--------------------------------------------------------------|
|------10-10-10--------------10-10-10-10--------10-10-10-10----|
|--------------------------------------------------------------|
|------8--8--8---------------8--8--8--8---------8--8--8--8-----|
|--0-0-----------3->-8---8----------------7-7------------------|


|--------------------------------------------------------------|
|--------------------------------------------------------------|
|--------------------------------------------------------------|
|--------------------------------------------------------------|
|----------------0---------------------------------------------|
|---5--5--10--9------------------------------------------------|


Tap to rate this tab
# A B C D E F G H I J K L M N O P Q R S T U V W X Y Z