Song name
# A B C D E F G H I J K L M N O P Q R S T U V W X Y Z

Misc Unsigned Bands - Lined In Chalk - Time And Place Of The Night tab

Intro/verse
e----7---7---7---7---7--7---7---7---7---7--10---10---10---10--7--7---7---7--7-|
B----8---8---8---8---8--7---7---7---7---7--7----7----7----7---7--8---8---8--8-|
G----9---9---9---9---9--7---7---7---7---7--7----7----7----7---7--9---9---9--9-|
D-----------------------------------------------------------------------------|
A-----------------------------------------------------------------------------|
E-----------------------------------------------------------------------------|

e--7
B--7
G--7
D---
A---
E---

Pre-chorus           Chorus  (strum and listen for rhythm
e----7----=----7----------=
B----7----=----8---7---8--=
G----8----=----9---7---8--=   repeat 4 times
D----9----=----9---7---8--=
A----9----=----7---5---6--=
E----7----=----0----------=
Tap to rate this tab
# A B C D E F G H I J K L M N O P Q R S T U V W X Y Z