Guitaretab - guitar tabs
Song name
# A B C D E F G H I J K L M N O P Q R S T U V W X Y Z

Misc Unsigned Bands - Pamplemousse - Torpid Torreador tab

Hey this is Pamplemousse's first entry, written by Alec James (our bassist)
Intro
Em C G D (Palm Muted) x4
--------------------------------------------------------------------
The verses are the same chord progression and timing, but with less emphasis on the mutings.
--------------------------------------------------------------------
Verse

Chorus
C G D Em (notice anything similar?)

Verse

Chorus

1st Bridge
[ Tab from: http://www.guitaretab.com/m/misc-unsigned-bands/82407.html ]
E------5-5-5-5----2-2-2-x----7-7-7-7------|
A-4----7-7-7-7----4-4-4-x----9-9-9-9------|
D-6----7-7-7-7----4-4-4-x----9-9-9-9------|   x4
G-6----6-6-6-6----3-3-3-x----8-8-8-8------|
B-5----5-5-5-5----2-2-2-x----7-7-7-7------|
e-4----5-5-5-5----2-2-2-x----7-7-7-7------|

Verse

Chorus

2nd Bridge
Do First Bridge, then go to...
E------6-6-6-6----3-3-3-x----8--8--8--8------------|
A-5----8-8-8-8----5-5-5-x----10-10-10-10-----------|
D-7----8-8-8-8----5-5-5-x----10-10-10-10-----------|
G-7----7-7-7-7----4-4-4-x----9--9--9--9------------|
B-6----6-6-6-6----3-3-3-x----8--8--8--8------------|
e-5----5-5-5-5----3-3-3-x----8--8--8--8------------|
Then repeat first bridge again.

Em C G D x4

end on Em.
Related for Pamplemousse - Torpid Torreador tab
×
Pamplemousse - Torpid Torreador