Song name
# A B C D E F G H I J K L M N O P Q R S T U V W X Y Z

Misc Unsigned Bands - Tenfold Inferiority - You Fat Bastard tab

Tabbed by: Annoymous
Email: -

Tuning:EADGBE

Intro- Repeat 4 times
e|---------3-----------------------3------------------------3----------------|
B|---------------3--------------------------3---------------------3-------3--|
G|-------------0--------------0---------0----------------------0--------0----|
D|-----2------------------2------------------------------0-------------------|
A|---2-----------------3------------------------------2----------------------|
E|-0------------------------------------------------3----------------3-------|


e|--------------------------------------------------------------------------|
B|-----3--------------------------------------------------------------------|
G|---0----------------------------------------------------------------------|
D|--------------------------------------------------------------------------|
A|--------------------------------------------------------------------------|
E|-2------------------------------------------------------------------------|

Verse: Use These Chords With the stumming pattern ,D,U,D,U,D,U,D,U,D Listen To the song 
get it Correct

e|-3-----3-----3-----3------------------------------------------------------|
B|-3-----3-----3-----3------------------------------------------------------|
G|-0-----0-----0-----1------------------------------------------------------|
D|-2-----2-----0-----0------------------------------------------------------|
A|-2-----3-----2-----0------------------------------------------------------|
E|-0-----0-----3-----2------------------------------------------------------|

End with the intro and finally arpegiate the first chord of the verse.
Tap to rate this tab
 
# A B C D E F G H I J K L M N O P Q R S T U V W X Y Z