Song name
# A B C D E F G H I J K L M N O P Q R S T U V W X Y Z

Misc Unsigned Bands - Toxic Tuxedo - Stand Your Ground tab

Help us improve GuitareTab! Take a short survey!
Intro

Guitar 1
Just down strokes
Barre chord
E|-5-|
B|-5-|
G|-7-|
D|-7-|
A|-6-|
E|-5-|X32

Guitar 2
  After 8 measures of the drum, start
    Gm
  du  du   du
E|-33--33--33|
B|-33--33--33|
G|-33--33--33|
D|-55--55--55|
A|-55--55--55|X2
E|-33--33--33|


Verse1

Guitar 1
E|-------8-0-5-0-8-0-10-0-8-0-5-0-3-0--|
B|-44-6-8------------------------------|
G|-------------------------------------|
D|-------------------------------------|
A|-------------------------------------|X3
E|-------------------------------------|

Guitar 2
Start with guitar 1
E|-0~---------0~----------0~-------0~--|
B|-0~---------0~----------0~-------0~--|
G|-0~---------0~----------0~-------0~--|
D|-2~---------2~----------2~-------2~--|
A|-2~---------2~----------2~-------2~--|
E|-0~---------0~----------0~-------0~--|X3


Chorus

Both Guitars
   du du du du    
E|-00-00-00-00-|X4
B|-00-11-11-11-|
G|-00-22-00-22-|
D|-22-22-22-22-|
A|-22-00-33-00-|
E|-00-00-00-00-|


Verse2

Guitar 1

E|-----------------------------------------------------------|   |------|
B|-----------------------------------------------------------|   |------|
G|-----------------------------------------------------------|   |------|
D|---------------------------------77777777555555552222-2222-|X2 |------|
A|-------------------------77779999--------------------------|   |------|
E|-444444447777777755555555----------------------------------|   |-1/15-|
    xxxxxxxxxxxxxxxxxxxxxxxxxxxxxxxxxxxxxxxxxxxxxxxxxxxxxxxxx



Guitar 2
       G      Em    A7     D       G     G7      C     Am           E             A7
E|-3333-0000-0000-2222-3333-1111-0000-0000~-00000000-00000000~|
B|-0000-0000-2222-3333-0000-0000-1111-1111~-00000000-22222222~|
G|-0000-0000-0000-2222-0000-0000-0000-2222~-11111111-00000000~|
D|-0000-2222-2222-0000-0000-0000-2222-2222~-22222222-22222222~|
A|-2222-2222-0000-0000-2222-2222-3333-0000~-22222222-00000000~|
E|-3333-0000-0000-xxxx-3333-3333-0000-0000~-00000000-00000000~|


Chorus


Bridge

Guitar 1

E|-----------------------------------------------57303580570530-|
B|--------------------------------------------------------------|
G|---------------------------75303570705030505030---------------|
D|--------------------75303/7-----------------------------------|
A|---------35705035/70------------------------------------------|
E|-33335555-----------------------------------------------------|X2


Guitar 2

E|-xx/ x x\xx\xx-|
B|-xx/ x x\xx\xx-|
G|-xx/ x x\xx\xx-|
D|-xx/ x x\xx\xx-|
A|-55/1212\99\77-|
E|-33/1010\77\55-|


Do the chorus slowly.

Outro

Both Guitars

E|-------------------------------------------------|
B|-------------------------------------------------|
G|-------------------------------------------------|
D|-------------------------------------------------|
A|------------------------------------3-3-3333-----|
E|-5-5-5555-7-7-7777-3-3-3333----------------------|
Related for Toxic Tuxedo - Stand Your Ground tab