Guitaretab - guitar tabs
Song name
# A B C D E F G H I J K L M N O P Q R S T U V W X Y Z

Misc Unsigned Bands - As Shadows Fade - No Name tab

Tabbed by:xBryanx
Email:jewishkid54@aim.com

Tuning:standard

e|-5-5-5-5--7-7--6-6--|
B|-7-7-7-7--9-9--8-8--|
G|--------------------|
D|--------------------|
A|--------------------|
E|--------------------|                             X5 getting faster each time
[ Tab from: http://www.guitaretab.com/m/misc-unsigned-bands/82439.html ]
e|-6-6-6--9--9--10-10-8--8--8--8--6-6-6----------------------------------------|
B|-8-8-8--11-11-12-12-10-10-10-10-8-8-8----------------------------------------|
G|-----------------------------------------------------------------------------|
D|-----------------------------------------------------------------------------|
A|-----------------------------------------------------------------------------|
E|-----------------------------------------------------------------------------|
                         x5 same speed

| /  slide up
| \  slide down
| h  hammer-on
| p  pull-off
| ~  vibrato
| +  harmonic
| x  Mute note
===============================================================================
Related for As Shadows Fade - No Name tab
Advertisement will be closed in 10 seconds