Song name
# A B C D E F G H I J K L M N O P Q R S T U V W X Y Z

Misc Unsigned Bands - Good In Short - Downstairs Anywhere tab

Intro:
e|--3------3------5------6------8------8--------0--------0-------------------|
B|----3------3------3------3------5------5---------3--------1----------------|
G|------3------3------3------3------5------5----------0--------3-------------|
D|---------------------------------------------------------------------------|
A|---------------------------------------------------------------------------|
E|---------------------------------------------------------------------------|



e|--3------3------5------6------8------8------10------10------10^8----8^7----|
B|----3------3------3------3------5------5-------7-------7---------7---------|
G|------3------3------3------3------5------5-------7-------7-----------------|
D|---------------------------------------------------------------------------|
A|---------------------------------------------------------------------------|
E|---------------------------------------------------------------------------|

Part 1:   
    C              C              e              e
e|--------0--------------0--------------0--------------0---------------------|
B|------1-1-1----------1-1-1----------0-0-0----------0-0-0-------------------|
G|----0-0---0-0------0-0---0-0------0-0---0-0------0-0---0-0-----------------|
D|--2-2-------2----2-2-------2----2-2-------2----2-2-------2-----------------|
A|--3--------------3--------------2--------------2---------------------------|
E|---------------------------------------------------------------------------|


   C               a              e              e
e|--------0--------------0--------------0----------------0-----------0----0--|
B|------1-1-1----------1-1-1----------0-0-0-----------0--0---0--------0----0-|
G|----0-0---0-0------2-2---2-2------0-0---0-0------0--0------0----0----0----0|
D|--2-2-------2----2-2-------2----2-2-------2----2-2--------------2----------|
A|--3--------------0--------------2--------------2---------------------------|
E|---------------------------------------------------------------------------|

and now 4/4 strumming

Chorus:(2x)

C/Cadd9/C7/C/D/D

C/Cadd9/e/a/D/D/e/e



Bridge:

a/C/D9/D

a/C/Dsus4/D/D     (let ring the last D)



Chorus:(1x)  



Outro:(Pick slowly)                            (let ring the last notes)

e|--3------5^3-----3-----5------8^5-----7^5----3-----------------------------|
B|----3--------3----3------5--------5----------3-----------------------------|
G|------3--------3-----------5--------5--------3-----------------------------|
D|---------------------------------------------------------------------------|
A|---------------------------------------------------------------------------|
E|---------------------------------------------------------------------------|
Tap to rate this tab
# A B C D E F G H I J K L M N O P Q R S T U V W X Y Z