Guitaretab - guitar tabs
Song name
# A B C D E F G H I J K L M N O P Q R S T U V W X Y Z

Misc Unsigned Bands - Kanesus - Untitled tab

-------------------------------------------------------------------------------
			     Untitled- Kanesus
-------------------------------------------------------------------------------
Tabbed by: Dr Drew182
Email: Drew_labelle666@hotmail.com

Tuning:

intro/fill

e|------------------------------------------------------------------------------|
B|------------------------------------------------------------------------------|
G|------------------------------------------------------------------------------|
D|---------5-5-5-5-7-7-7-7-5-5-5-5----------------------------------------------|
A|-5-5-5-5-3-3-3-3-5-5-5-5-3-3-3-3----------------------------------------------|
E|-3-3-3-3----------------------------------------------------------------------|

chorus

e|---------------------------------------------------------------------------|
B|---------------------------------------------------------------------------|
G|---------------------------------------------------------------------------|
D|-------------7-7-7-7-7-7-9-9-9-9-9-9-7-7-7-7-7-7---------------------------|
A|-7-7-7-7-7-7-5-5-5-5-5-5-7-7-7-7-7-7-5-5-5-5-5-5---------------------------|
E|-5-5-5-5-5-5---------------------------------------------------------------|

verse
[ Tab from: http://www.guitaretab.com/m/misc-unsigned-bands/82537.html ]
e|---------------------------------------------------------------------------|
B|---------------------------------------------------------------------------|
G|---------------------------------------------------------------------------|
D|-9-9-9-9-9-9---------------------------------------------------------------|
A|-7-7-7-7-7-7-9-9-9-9-9-9-11-11-11-11-11-11-7-7-7-7-7-7---------------------|
E|-------------7-7-7-7-7-7-9-9-9-9-9-9--5-5-5-5-5-5---------------------|
-  x x x x x x x x x x x x x  x  x  x  x  x  x x x x x x

outro

(only on the forth time)
e|-5-5-5-5-------------------------(5--)-------------------------------------|
B|-3-3-3-3-7-7-7-7-5-5-5-5--7---5--(3--)-------------------------------------|
G|---------5-5-5-5-3-3-3-3--5---3--------------------------------------------|
D|---------------------------------------------------------------------------|
A|---------------------------------------------------------------------------|
E|---------------------------------------------------------------------------|
order

intro  2x
chorus 2x 
verse  2x
fill   2x  
chorus 2x
verse  2x
fill   2x
chorus 2x
verse  2x
fill   2x
outro  4x


| /  slide up
| \  slide down
| h  hammer-on
| p  pull-off
| ~  vibrato
| +  harmonic
| x  Mute note
===============================================================================
Related for Kanesus - Untitled tab