Song name
# A B C D E F G H I J K L M N O P Q R S T U V W X Y Z

Misc Unsigned Bands - Sharkpunch - Livin La Vida Straight Edge tab

I noticed there wasn't any Sharkpunch tabs, and I think they are hillarious so I 
I know how to play it, maybe someone else would wanna know...it's my first tab it sounds right 
me, if its not tell me, I'll be puting Dinocore up in a little bit.

E |----------|
B |----------|
G |----------|
D |-0-~~-----|Open Chord
A |-0-~~-----|
D |-0-~~-----|

E |----------------------------|
B |----------------------------|
G |----------------------------|
D |----------------------------|Open Bass Line
A |----------------------------|
D |-0-0-0-0-3-4--4-4-4-4-4-3-3-|

E |-------------------------|
B |-------------------------|
G |-------------------------|
D |-------------------------|Verse
A |-3h4-6h7-3h4-6h7-3h4-3h4-|
D |-3h4-6h7-3h4-6h7-3h4-3h4-|

Transition
E |-------------------------|
B |-------------------------|
G |-------------------------|
D |-------------------------|
A |-0-0-0-0-0-3-3-3-3-3-3-3-|
D |-0-0-0-0-0-3-3-3-3-3-3-3-|


E |-----------------------------------|
B |-----------------------------------|
G |-----------------------------------|
D |-----------------------------------|
A |-0-0-0-0-0-0-0-0-0--0--0-0-0-0-0-0-|
D |-0-0-0-0-0-0-0-0-0--0--0-0-0-0-0-0-|
    d d d d u d u d d  d  d u d u d d


Chorus
E |-----------------------------------------|
B |-----------------------------------------|
G |-----------------------------------------|
D |-----------------------------------------|
A |-0-0-0-0-0-/12-12-12-12-12-12-12---------|
D |-0-0-0-0-0-/12-12-12-12-12-12-12---------|

E |----------------------------------|
B |----------------------------------|
G |----------------------------------|
D |----------------------------------|
A |-0-0-0-0-0-/12-12-12-12-11-11--0~-|
D |-0-0-0-0-0-/12-12-12-12-11-11--0~-|

Transition
E |----------------------------------|
B |----------------------------------|
G |----------------------------------|
D |----------------------------------|
A |-0-0--0-0-0-0-0-0--0--0-0-0-0-0-0-|
D |-0-0--0-0-0-0-0-0--0--0-0-0-0-0-0-|
    d d  d u d u d d  d  d u d u d u


Verse (ring out, then go into 2 step)
E |------------------------------------------------|
B |------------------------------------------------|
G |------------------------------------------------|
D |------------------------------------------------|
A |-5-5-3-3-3-0--0-0-0-0-0-0-5-5-3-3-3/7-7-7-7-7-7-|
D |-5-5-3-3-3-0--0-0-0-0-0-0-5-5-3-3-3/7-7-7-7-7-7-|

E |---------------------------------------|
B |---------------------------------------|
G |---------------------------------------|
D |---------------------------------------|
A |-5-5-5-3-3-0-0-0-0-0-0-0-0-5-5-3-3-3-0-|
D |-5-5-5-3-3-0-0-0-0-0-0-0-0-5-5-3-3-3-0-|

Chorus
E |---------------------------------|
B |---------------------------------|
G |---------------------------------|
D |---------------------------------|
A |-0-0-0-0-0-/12-12-12-12-12-12-12-|
D |-0-0-0-0-0-/12-12-12-12-12-12-12-|

E |----------------------------------|
B |----------------------------------|
G |----------------------------------|
D |----------------------------------|
A |-0-0-0-0-0-/12-12-12-12-11-11--0~-|
D |-0-0-0-0-0-/12-12-12-12-11-11--0~-|


E |----------------------------------|
B |----------------------------------|
G |----------------------------------|
D |----------------------------------|
A |-0-0--0-0-0-0-0-0--0--0-0-0-0-0-0-|
D |-0-0--0-0-0-0-0-0--0--0-0-0-0-0-0-|
    d d  d u d u d d  d  d u d u d u


Breakdown
E |----------------------------------------------------|
B |----------------------------------------------------|
G |----------------------7p------------------------7p--|
D |----------------------x-------------------------x---|
A |-0-0-0--0-0-0--0-0-0--5p---0-0-0--0-0-0--0-0-0--5p--|
D |-0-0-0--0-0-0--0-0-0-------0-0-0--0-0-0--0-0-0------|

E |----------------------------------------------------|
B |----------------------------------------------------|
G |-7-7-7--7-7-7--7-7-7---7p--7-7-7--7-7-7--7-7-7--7p--|
D |-x-x-x--x-x-x--x-x-x---x---x-x-x---x-x-x--x-x-x---x-|
A |-5-5-5--5-5-5--5-5-5---5p--5-5-5--5-5-5--5-5-5--5p--|
D |-0-0-0--0-0-0--0-0-0-------0-0-0--0-0-0--0-0-0---0--|

E |----------------------------------------------------|
B |----------------------------------------------------|
G |----------------------7p------------------------7p--|
D |----------------------x-------------------------x---|
A |-0-0-0--0-0-0--0-0-0--5p---0-0-0--0-0-0--0-0-0--5p--|
D |-0-0-0--0-0-0--0-0-0-------0-0-0--0-0-0--0-0-0------|

E |----------------------------------------------------|
B |----------------------------------------------------|
G |-7-7-7--7-7-7--7-7-7---7p--7-7-7--7-7-7--7-7-7--7p--|
D |-x-x-x--x-x-x--x-x-x---x---x-x-x--x-x-x--x-x-x--x---|
A |-5-5-5--5-5-5--5-5-5---5p--5-5-5--5-5-5--5-5-5--5p--|
D |-0-0-0--0-0-0--0-0-0-------0-0-0--0-0-0--0-0-0---0--|

E---|
B---|
G---|
D-0-|End Chord
A-0-|
D-0-|

hope you enjoyed
-nick
Tap to rate this tab
 
# A B C D E F G H I J K L M N O P Q R S T U V W X Y Z