Song name
# A B C D E F G H I J K L M N O P Q R S T U V W X Y Z

Misc Unsigned Bands - Broken Alliance - Mystery Girl tab

Standard Tuning

e|--5-5-5-5-5-5--8-5-5--8-8--8--8--7--7--5-5-5-5-5-5--8-5-5--5-5--3--1--0-0->R---|
B|--5-5-5-5-5-5--5-5-5--5-5--5--5--5--5--5-5-5-5-5-5--5-5-5--5-5--3--1--0-0->E---|
G|--5-5-5-5-5-5--5-5-5--5-5--5--5--5--5--5-5-5-5-5-5--5-5-5--5-5--3--1--0-0->P-1-|
D|--7-7-7-7-7-7--7-7-7--7-7--7--7--7--7--7-7-7-7-7-7--7-7-7--7-7--5--3--2-2->E-x-|
A|--5-5-5-5-5-5--5-5-5--5-5--5--5--5--5--5-5-5-5-5-5--5-5-5--5-5--3--1--0-0->A---|
E|--5-5-5-5-5-5--5-5-5--5-5--5--5--5--5--5-5-5-5-5-5--5-5-5--5-5--3--1--0-0->T---|

|-3-3-3-3-7--3-5--5-7-3-5--5-|
|-3-3-3-3-7--3-5--5-7-3-5--5-|
|-3-3-3-3-7--3-5--5-7-3-5--5-|Repeat 1x
|-5-5-5-5-9--5-7--7-9-5-7--7-|
|-3-3-3-3-7--3-5--5-7-3-5--5-|
|-3-3-3-3-7--3-5--5-7-3-5--5-|

|-5-5-5-5-8-5-5-5-8-5-5-5-8-5-5-5-8--7-7-7--7--8-5-5-5-8-5-5-5-8-\
|-5-5-5-5-5-5-8-5-5-5-8-5-5-5-8-5-5--5-5-5--5--5-5-8-5-5-5-8-5-5-\
|-5-5-5-5-5-5-5-5-5-5-5-5-5-5-5-5-5--5-5-5--5--5-5-5-5-5-5-5-5-5-\
|-7-7-7-7-7-7-7-7-7-7-7-7-7-7-7-7-7--7-7-7--7--7-7-7-7-7-7-7-7-7-\
|-5-5-5-5-5-5-5-5-5-5-5-5-5-5-5-5-5--5-5-5--5--5-5-5-5-5-5-5-5-5-\
|-5-5-5-5-5-5-5-5-5-5-5-5-5-5-5-5-5--5-5-5--5--5-5-5-5-5-5-5-5-5-\

|-3-1-0---0--|
|-3-1-0---0--|
|-3-1-0---0--|Repeat 1x
|-5-3-2---2--|
|-3-1-0---0--|
|-3-1-0---0--|

|-5-5-5-5-8-5-------------------------------------------------\
|-5-5-5-5-----8-5---------------------------------------------\
|-5-5-5-5---------7-5-----------------------------------------\
|-7-7-7-7-------------7-5-------------------------------------\
|-5-5-5-5-----------------7-5---------------------------------\
|-5-5-5-5---------------------8-5--5-8-5--5-8-5--5-8-5--5-8-5-\

|--5-5-5-5-5-5--8-5-5--8-8--8--8--7--7--5-5-5-5-5-5--8-5-5--5-5--3--1--0-0->R---|
|--5-5-5-5-5-5--5-5-5--5-5--5--5--5--5--5-5-5-5-5-5--5-5-5--5-5--3--1--0-0->E---|
|--5-5-5-5-5-5--5-5-5--5-5--5--5--5--5--5-5-5-5-5-5--5-5-5--5-5--3--1--0-0->P-1-|
|--7-7-7-7-7-7--7-7-7--7-7--7--7--7--7--7-7-7-7-7-7--7-7-7--7-7--5--3--2-2->E-x-|
|--5-5-5-5-5-5--5-5-5--5-5--5--5--5--5--5-5-5-5-5-5--5-5-5--5-5--3--1--0-0->A---|
|--5-5-5-5-5-5--5-5-5--5-5--5--5--5--5--5-5-5-5-5-5--5-5-5--5-5--3--1--0-0->T---|

|-3-3-3-3-7--3-5--5-7-3-5--5-|
|-3-3-3-3-7--3-5--5-7-3-5--5-|
|-3-3-3-3-7--3-5--5-7-3-5--5-|Repeat 1x
|-5-5-5-5-9--5-7--7-9-5-7--7-|
|-3-3-3-3-7--3-5--5-7-3-5--5-|
|-3-3-3-3-7--3-5--5-7-3-5--5-|

|-5-5-5-5-8-5-5-5-8-5-5-5-8-5-5-5-8--7-7-7--7--8-5-5-5-8-5-5-5-8-\
|-5-5-5-5-5-5-8-5-5-5-8-5-5-5-8-5-5--5-5-5--5--5-5-8-5-5-5-8-5-5-\
|-5-5-5-5-5-5-5-5-5-5-5-5-5-5-5-5-5--5-5-5--5--5-5-5-5-5-5-5-5-5-\
|-7-7-7-7-7-7-7-7-7-7-7-7-7-7-7-7-7--7-7-7--7--7-7-7-7-7-7-7-7-7-\
|-5-5-5-5-5-5-5-5-5-5-5-5-5-5-5-5-5--5-5-5--5--5-5-5-5-5-5-5-5-5-\
|-5-5-5-5-5-5-5-5-5-5-5-5-5-5-5-5-5--5-5-5--5--5-5-5-5-5-5-5-5-5-\

|-3-1-0---0--|
|-3-1-0---0--|
|-3-1-0---0--|Repeat 1x
|-5-3-2---2--|
|-3-1-0---0--|
|-3-1-0---0--|

|-5-5-5-5-8-5-------------------------------------------------\
|-5-5-5-5-----8-5---------------------------------------------\
|-5-5-5-5---------7-5-----------------------------------------\
|-7-7-7-7-------------7-5-------------------------------------\
|-5-5-5-5-----------------7-5---------------------------------\
|-5-5-5-5---------------------8-5--5-8-5--5-8-5--5-8-5--5-8-5-\

|---------------------5-8--12-12-12-12--12----12-12-12-12--12----|
|-----------------5-8----------------------10-----------------10-|
|-------------5-7------------------------------------------------|
|---------5-7----------------------------------------------------|
|-----5-7--------------------------------------------------------|
|-5-8------------------------------------------------------------|

|-12-12-10-12--15--17--17-17-17-15-17-20--20-20-20-20-20-17--15-12|
|-----------------------------------------------------------------|
|-----------------------------------------------------------------|
|-----------------------------------------------------------------|
|-----------------------------------------------------------------|
|-----------------------------------------------------------------|

|--------------15-12--------------|
|-15-13--------------15-13--------|
|-------14-14--------------14-14--|
|---------------------------------|
|---------------------------------|
|---------------------------------|

|-5-5-5-5-8-5-5-5-8-5-5-5-8-5-5-5-8--7-7-7--7--8-5-5-5-8-5-5-5-8-\
|-5-5-5-5-5-5-8-5-5-5-8-5-5-5-8-5-5--5-5-5--5--5-5-8-5-5-5-8-5-5-\
|-5-5-5-5-5-5-5-5-5-5-5-5-5-5-5-5-5--5-5-5--5--5-5-5-5-5-5-5-5-5-\
|-7-7-7-7-7-7-7-7-7-7-7-7-7-7-7-7-7--7-7-7--7--7-7-7-7-7-7-7-7-7-\
|-5-5-5-5-5-5-5-5-5-5-5-5-5-5-5-5-5--5-5-5--5--5-5-5-5-5-5-5-5-5-\
|-5-5-5-5-5-5-5-5-5-5-5-5-5-5-5-5-5--5-5-5--5--5-5-5-5-5-5-5-5-5-\

|-3-1-0---0--|
|-3-1-0---0--|
|-3-1-0---0--|Repeat 1x
|-5-3-2---2--|
|-3-1-0---0--|
|-3-1-0---0--|

|--5-5-5-5-5-5--8-5-5--8-8--8--8--7--7--5-5-5-5-5-5--8-5-5--5-5--3--1--0-0->R---|
|--5-5-5-5-5-5--5-5-5--5-5--5--5--5--5--5-5-5-5-5-5--5-5-5--5-5--3--1--0-0->E---|
|--5-5-5-5-5-5--5-5-5--5-5--5--5--5--5--5-5-5-5-5-5--5-5-5--5-5--3--1--0-0->P-1-|
|--7-7-7-7-7-7--7-7-7--7-7--7--7--7--7--7-7-7-7-7-7--7-7-7--7-7--5--3--2-2->E-x-|
|--5-5-5-5-5-5--5-5-5--5-5--5--5--5--5--5-5-5-5-5-5--5-5-5--5-5--3--1--0-0->A---|
|--5-5-5-5-5-5--5-5-5--5-5--5--5--5--5--5-5-5-5-5-5--5-5-5--5-5--3--1--0-0->T---|

|-3-3-3-3-7--3-5--5-7-3-5--5-|
|-3-3-3-3-7--3-5--5-7-3-5--5-|
|-3-3-3-3-7--3-5--5-7-3-5--5-|Repeat 1x
|-5-5-5-5-9--5-7--7-9-5-7--7-|
|-3-3-3-3-7--3-5--5-7-3-5--5-|
|-3-3-3-3-7--3-5--5-7-3-5--5-|

|--5-5-5-5-5-5--8-5-5--8-8--8--8--7--7--5-5-5-5-5-5--8-5-5--5-5--3--1--0-0->R---|
|--5-5-5-5-5-5--5-5-5--5-5--5--5--5--5--5-5-5-5-5-5--5-5-5--5-5--3--1--0-0->E---|
|--5-5-5-5-5-5--5-5-5--5-5--5--5--5--5--5-5-5-5-5-5--5-5-5--5-5--3--1--0-0->P-1-|
|--7-7-7-7-7-7--7-7-7--7-7--7--7--7--7--7-7-7-7-7-7--7-7-7--7-7--5--3--2-2->E-x-|
|--5-5-5-5-5-5--5-5-5--5-5--5--5--5--5--5-5-5-5-5-5--5-5-5--5-5--3--1--0-0->A---|
|--5-5-5-5-5-5--5-5-5--5-5--5--5--5--5--5-5-5-5-5-5--5-5-5--5-5--3--1--0-0->T---|

|-3-3-3-3-7--3-5--5-7-3-5--5-|
|-3-3-3-3-7--3-5--5-7-3-5--5-|
|-3-3-3-3-7--3-5--5-7-3-5--5-|Repeat 1x
|-5-5-5-5-9--5-7--7-9-5-7--7-|
|-3-3-3-3-7--3-5--5-7-3-5--5-|
|-3-3-3-3-7--3-5--5-7-3-5--5-|

|--5-5-5-5-5-5--8-5-5--8-8--8--8--7--7--5-5-5-5-5-5--8-5-5--5-5--3--1--0-0->R---|
|--5-5-5-5-5-5--5-5-5--5-5--5--5--5--5--5-5-5-5-5-5--5-5-5--5-5--3--1--0-0->E---|
|--5-5-5-5-5-5--5-5-5--5-5--5--5--5--5--5-5-5-5-5-5--5-5-5--5-5--3--1--0-0->P-1-|
|--7-7-7-7-7-7--7-7-7--7-7--7--7--7--7--7-7-7-7-7-7--7-7-7--7-7--5--3--2-2->E-x-|
|--5-5-5-5-5-5--5-5-5--5-5--5--5--5--5--5-5-5-5-5-5--5-5-5--5-5--3--1--0-0->A---|
|--5-5-5-5-5-5--5-5-5--5-5--5--5--5--5--5-5-5-5-5-5--5-5-5--5-5--3--1--0-0->T---|

|-3-3-3-3-7--3-5--5-7-3-5--5-|
|-3-3-3-3-7--3-5--5-7-3-5--5-|
|-3-3-3-3-7--3-5--5-7-3-5--5-|Repeat 1x
|-5-5-5-5-9--5-7--7-9-5-7--7-|
|-3-3-3-3-7--3-5--5-7-3-5--5-|
|-3-3-3-3-7--3-5--5-7-3-5--5-|
































Tap to rate this tab
# A B C D E F G H I J K L M N O P Q R S T U V W X Y Z