Song name
# A B C D E F G H I J K L M N O P Q R S T U V W X Y Z

Misc Unsigned Bands - Pooped Cherri - Penis Vagina tab

This is a B.A. Song by Poped Cherri called Penis Vagina!!!

~ hold out

Intro
e------------------------------|
b------------------------------|
g--555555----------------------|
d--555555-555555-777777-3~~~~~-|
a--333333-555555-777777-3~~~~~-|
E---------333333-555555-1~~~~~-|

Chorus
e---------------------------------|
b---------------------------------|
g--5~5555-------------------------|
d--5~5555-5~5555-7~5555-3~3333----|   2X
a--3~3333-5~5555-7~5555-3~3333----|
E---------3~3333-5~3333-1~1111----|

Bridge
e------------------------------|
b------------------------------|
g--555555----------------------|
d--555555-555555-777777-3~~~~~-|
a--333333-555555-777777-3~~~~~-|
E---------333333-555555-1~~~~~-|

Verse
e---------------------------------|
b---------------------------------|
g--5~5555-------------------------|
d--5~5555-5~5555-7~5555-3~3333----|   2X
a--3~3333-5~5555-7~5555-3~3333----|
E---------3~3333-5~3333-1~1111----|

Bridge
e------------------------------|
b------------------------------|
g--555555----------------------|
d--555555-555555-777777-3~~~~~-|
a--333333-555555-777777-3~~~~~-|
E---------333333-555555-1~~~~~-|

Chorus
e---------------------------------|
b---------------------------------|
g--5~5555-------------------------|
d--5~5555-5~5555-7~5555-3~3333----|   2X
a--3~3333-5~5555-7~5555-3~3333----|
E---------3~3333-5~3333-1~1111----|

Outro
e------------------------------------|
b------------------------------------|
g--55-55-5~--------------------------|
d--55-55-5~-55-55-5~-77-77-7~-3~~~~~-|
a--33-33-3~-55-55-5~-77-77-7~-3~~~~~-|
E-----------33-33-3~-55-55-5~-1~~~~~-|

I know it's right because I just know.

Lyrics

Penis, Vagina,
Stick it in,
Your hina,
Penis, Vagina,
I'll do you in,
China,

My penis,
in your vagina,
My penis,
in your hina,

Penis, Vagina,
Stick it in,
Your hina,
Penis, Vagina,
I'll do you in,
China,
Tap to rate this tab
# A B C D E F G H I J K L M N O P Q R S T U V W X Y Z