Song name
# A B C D E F G H I J K L M N O P Q R S T U V W X Y Z

Misc Unsigned Bands - 5 Degrees Kelvin - Good Riddance tab

Main riff/Intro:
e------------------------------------------------------|
b------3-------------3-----------3-------------3-------|
g---------0------------0------------0--------2---2-----|     repeat 4x
d----0------0------0-----0-----2------2----0-------0---|
a----------------------------3-------------------------|
E--3-------------3-------------------------------------|

Verse:
e-------3-------------3------------3-------------3---------|
b------3-------------3------------3-------------3----------|
g---------0-------------0------------0--------2----2-------| repeat 4x
d----0------0------0------0-----2------2----0--------0-----|
a-----------------------------3----------------------------|
E--3-------------3-----------------------------------------|

Chorus:
e--3--3--3--3--3--3--3--3--3---|
b--3--3--3--3--3--3--3--3--3---|
g--0--0--0--0--2--2--2--2--2---|   repeat 4x
d--0--0--2--2--0--0--0--0--0---|
a--2--2--3--3------------------|
E--3--3------------------------|


Verse:
e-------3-------------3------------3-------------3---------|
b------3-------------3------------3-------------3----------|
g---------0-------------0------------0--------2----2-------| repeat 4x
d----0------0------0------0-----2------2----0--------0-----|
a-----------------------------3----------------------------|
E--3-------------3-----------------------------------------|


Ending:
e-------3--------------|
b------3---------------|
g-----0----------------|
d----0-----------------|
a---2------------------|
E--3-------------------|
Tap to rate this tab
# A B C D E F G H I J K L M N O P Q R S T U V W X Y Z