Guitaretab - guitar tabs
Song name
# A B C D E F G H I J K L M N O P Q R S T U V W X Y Z

Misc Unsigned Bands - Mcp - I Got Herpees tab

Tuning-Drop D down a whole step (Drop C):
D
A
F
C
G
C

Verse:
|-------------------------------------------------------------------------|
|-------------------------------------------------------------------------|
|-------------------------------------------------------------------------|
|-14----12----10----9----14--14--14-14-14-14--12--12--12-12-12-12--10--10-|
|-14----12----10----9----14--14--14-14-14-14--12--12--12-12-12-12--10--10-|
|-14----12----10----9----14--14--14-14-14-14--12--12--12-12-12-12--10--10-|

|-------------------------------------------------------------------------|
|-------------------------------------------------------------------------|
|-------------------------------------------------------------------------|
|-10-10-10-10--9--9--9-9-9-9----------------------------------------------|
|-10-10-10-10--9--9--9-9-9-9----------------------------------------------|
|-10-10-10-10--9--9--9-9-9-9----------------------------------------------|
[ Tab from: http://www.guitaretab.com/m/misc-unsigned-bands/82646.html ]
Chorus:
|-------------------------------------------------------------------------|
|-------------------------------------------------------------------------|
|-------------------------------------------------------------------------|
|-0---3-2-0-0---3-2-0-0---3-2-0-0-----------------------------------------|
|-0---3-2-0-0---3-2-0-0---3-2-0-0-----------------------------------------|
|-0---3-2-0-0---3-2-0-0---3-2-0-0-----------------------------------------|
You gave me herpees, You gave me herpees, you gave me herpees, you gave me herpees

|---------------------------------------------------------------------------|
|---------------------------------------------------------------------------|
|---------------------------------------------------------------------------|
|-3-2-0-0-3-2-0-0-3-2-0-0-3-2-0-0-3-2-0-0-3-2-0-0-3-2-0-0-3-2-0-0-----------|
|-3-2-0-0-3-2-0-0-3-2-0-0-3-2-0-0-3-2-0-0-3-2-0-0-3-2-0-0-3-2-0-0-----------|
|-3-2-0-0-3-2-0-0-3-2-0-0-3-2-0-0-3-2-0-0-3-2-0-0-3-2-0-0-3-2-0-0-----------|
Herpees!

Song Order:
Verse
Chorus
Verse
Chorus
Related for Mcp - I Got Herpees tab
Advertisement will be closed in 10 seconds