Song name
# A B C D E F G H I J K L M N O P Q R S T U V W X Y Z

Misc Unsigned Bands - Mcp - Slap My Penis With A Bass tab

Tuning-Drop D down a whole-step (Drop C):
D
A
F
C
G
C

... = Palm Muted
s~ = slight vibrato
\ = slide down

Intro and Verse:

|---------------------------------------------------------------------------|
|---------------------------------------------------------------------------|
|------12----12----12---12-13-----------------------------------------------|
|-12------12----12----12----------------------------------------------------|
|---------------------------------------------------------------------------|
|---------------------------------------------------------------------------|

Chorus:

Played 3 times:
|---------------------------------------------------------------------------|
|---------------------------------------------------------------------------|
|---------------------------------------------------------------------------|
|-0--0-0-0-0-0-5-5-5-5------------------------------------------------------|
|-0--0-0-0-0-0-5-5-5-5------------------------------------------------------|
|-0--0-0-0-0-0-5-5-5-5------------------------------------------------------|

|---------------------------------------------------------------------------|
|---------------------------------------------------------------------------|
|---------------------------------------------------------------------------|
|-0--0-0-0-0-0-6-6-6-6------------------------------------------------------|
|-0--0-0-0-0-0-6-6-6-6------------------------------------------------------|
|-0--0-0-0-0-0-6-6-6-6------------------------------------------------------|

Breakdown:

|---------------------------------------------------------------------------|
|---------------------------------------------------------------------------|
|-----12-13s~-----12-13s~-----12-13s~-----12s~------------------------------|
|---------------------------------------------------------------------------|
|-0-0---------0-0---------0-0--------0-0------------------------------------|
|-0-0---------0-0---------0-0--------0-0------------------------------------|
  ...         ...         ...        ...

Outro:

Played 3 Times:
|---------------------------------------------------------------------------|
|---------------------------------------------------------------------------|
|---------------------------------------------------------------------------|
|-0--0-0-0-0-0-5-5-5-5------------------------------------------------------|
|---------------------------------------------------------------------------|
|---------------------------------------------------------------------------|

|---------------------------------------------------------------------------|
|---------------------------------------------------------------------------|
|------------------12-------------------------------------------------------|
|-0--0-0-0-0-0-12------12\--------------------------------------------------|
|---------------------------------------------------------------------------|
|---------------------------------------------------------------------------|

Song Order:
Intro
Verse
Chorus
Breakdown
Verse
Chorus
Outro
Tap to rate this tab
 
# A B C D E F G H I J K L M N O P Q R S T U V W X Y Z