Song name
# A B C D E F G H I J K L M N O P Q R S T U V W X Y Z

Misc Unsigned Bands - Mcp - Jammin tab

Tuning-song was recorded in Drop C, but can be played in Standard:
Drop C:
D
A
F
C
G
C

Standard:
E
B
G
D
A
E

TAB IN DROP C:

xx = scrape/ghost note

Whole song = different variations of:
|----5----5----5----x-x-----------------------------------------------------|
|-----5----5----5---x-x-----------------------------------------------------|
|-2----2----2----2--x-x-----------------------------------------------------|
|---------------------------------------------------------------------------|
|---------------------------------------------------------------------------|
|---------------------------------------------------------------------------|

TAB IN STANDARD:

xx = scrape/ghost note

Whole song = different variations of:
|----3----3----3----x-x-----------------------------------------------------|
|-----3----3----3---x-x-----------------------------------------------------|
|-0----0----0----0--x-x-----------------------------------------------------|
|---------------------------------------------------------------------------|
|---------------------------------------------------------------------------|
|---------------------------------------------------------------------------|
Tap to rate this tab
 
# A B C D E F G H I J K L M N O P Q R S T U V W X Y Z