Song name
# A B C D E F G H I J K L M N O P Q R S T U V W X Y Z

Misc Unsigned Bands - Broken Alliance - Question tab

Standard Tuning

e|---3-----3-----3---3-----3-----3---3-----3-----3---3-----2-----2-|
B|-----0-----0---------1-----1---------1-----1---------3-----3-----|
G|-----------------------------------------------------------------|
D|---------------------------------2-----2-----2---0-----0-----0---|Repeat 1x
A|-----------------3-----3-----3-----------------------------------|
E|-3-----3-----3---------------------------------------------------|

|-3--3-3--3-3-3-3--3-3--3-3-3-3--3-3--3-3-3-3-2-0-2-3-2-0-2-|
|-0--0-0--0-0-0-1--1-1--1-1-1-1--1-1--1-1-1-3-3-3-3-3-3-3-3-|
|-0--0-0--0-0-0-0--0-0--0-0-0-2--2-2--2-2-2-2-2-2-2-2-2-2-2-|Repeat 1x
|-0--0-0--0-0-0-2--2-2--2-2-2-2--2-2--2-2-2-0-0-0-0-0-0-0-0-|
|-2--2-2--2-2-2-3--3-3--3-3-3-0--0-0--0-0-0-0-0-0-0-0-0-0-0-|
|-3--3-3--3-3-3---------------------------------------------|

|-3--3-3--3-3-3-3--3-3--3-3-3-|
|-0--0-0--0-0-0-1--1-1--1-1-1-|
|-0--0-0--0-0-0-0--0-0--0-0-0-|Repeat 3x
|-0--0-0--0-0-0-2--2-2--2-2-2-|
|-2--2-2--2-2-2-3--3-3--3-3-3-|
|-3--3-3--3-3-3---------------|

|-3--3-3--3-3-3-2--2-2--2-2-2-|
|-3--3-3--3-3-3-3--3-3--3-3-3-|
|-2--2-2--2-2-2-2--2-2--2-2-2-|
|-0--0-0--0-0-0-0--0-0--0-0-0-|
|-0--0-0--0-0-0-0--0-0--0-0-0-|
|-----------------------------|

|-3--3-3--3-3-3-3--3-3--3-3-3-3--3-3--3-3-3-3-2-0-2-3-2-0-2-|
|-0--0-0--0-0-0-1--1-1--1-1-1-1--1-1--1-1-1-3-3-3-3-3-3-3-3-|
|-0--0-0--0-0-0-0--0-0--0-0-0-2--2-2--2-2-2-2-2-2-2-2-2-2-2-|Repeat 1x
|-0--0-0--0-0-0-2--2-2--2-2-2-2--2-2--2-2-2-0-0-0-0-0-0-0-0-|
|-2--2-2--2-2-2-3--3-3--3-3-3-0--0-0--0-0-0-0-0-0-0-0-0-0-0-|
|-3--3-3--3-3-3---------------------------------------------|
..........................................................____________________________
_________________________________________________________|1st ending
|-3--3-3--3-3-3-3--3-3--3-3-3-3--3-3--3-3-3-3--3-3--3-3-3-3--3-3--3-3-3-2--2-2--2-2-2---|R
|-0--0-0--0-0-0-0--0-0--0-0-0-1--1-1--1-1-1-1--1-1--1-1-1-3--3-3--3-3-3-3--3-3--3-3-3---|E
|-0--0-0--0-0-0-0--0-0--0-0-0-0--0-0--0-0-0-0--0-0--0-0-0-2--2-2--2-2-2-2--2-2--2-2-2---|P
|-0--0-0--0-0-0-0--0-0--0-0-0-2--2-2--2-2-2-2--2-2--2-2-2-0--0-0--0-0-0-0--0-0--0-0-0---|E
|-2--2-2--2-2-2-2--2-2--2-2-2-3--3-3--3-3-3-3--3-3--3-3-3-0--0-0--0-0-0-0--0-0--0-0-0---|A
|-3--3-3--3-3-3-3--3-3--3-3-3-----------------------------------------------------------|T
_________________
_|2nd ending
|-2-----2-0----2-|
|-3-----3-1----3-|
|-2-----2-0----2-|
|-0-----0-2----0-|
|-0-----0-3----0-|
|----------------|


|-3--3-3--3-3-3-3--3-3--3-3-3-3--3-3--3-3-3-3-2-0-2-3-2-0-2-|
|-0--0-0--0-0-0-1--1-1--1-1-1-1--1-1--1-1-1-3-3-3-3-3-3-3-3-|
|-0--0-0--0-0-0-0--0-0--0-0-0-2--2-2--2-2-2-2-2-2-2-2-2-2-2-|Repeat 1x
|-0--0-0--0-0-0-2--2-2--2-2-2-2--2-2--2-2-2-0-0-0-0-0-0-0-0-|
|-2--2-2--2-2-2-3--3-3--3-3-3-0--0-0--0-0-0-0-0-0-0-0-0-0-0-|
|-3--3-3--3-3-3---------------------------------------------|

|-3--3-3--3-3-3-3--3-3--3-3-3-|
|-0--0-0--0-0-0-1--1-1--1-1-1-|
|-0--0-0--0-0-0-0--0-0--0-0-0-|Repeat 3x
|-0--0-0--0-0-0-2--2-2--2-2-2-|
|-2--2-2--2-2-2-3--3-3--3-3-3-|
|-3--3-3--3-3-3---------------|

|-3--3-3--3-3-3-2--2-2--2-2-2-|
|-3--3-3--3-3-3-3--3-3--3-3-3-|
|-2--2-2--2-2-2-2--2-2--2-2-2-|
|-0--0-0--0-0-0-0--0-0--0-0-0-|
|-0--0-0--0-0-0-0--0-0--0-0-0-|
|-----------------------------|


|-3--3-3--3-3-3-3--3-3--3-3-3-3--3-3--3-3-3-3-2-0-2-3-2-0-2-|
|-0--0-0--0-0-0-1--1-1--1-1-1-1--1-1--1-1-1-3-3-3-3-3-3-3-3-|
|-0--0-0--0-0-0-0--0-0--0-0-0-2--2-2--2-2-2-2-2-2-2-2-2-2-2-|Repeat 1x
|-0--0-0--0-0-0-2--2-2--2-2-2-2--2-2--2-2-2-0-0-0-0-0-0-0-0-|
|-2--2-2--2-2-2-3--3-3--3-3-3-0--0-0--0-0-0-0-0-0-0-0-0-0-0-|
|-3--3-3--3-3-3---------------------------------------------|

..........................................................____________________________
_________________________________________________________|1st ending
|-3--3-3--3-3-3-3--3-3--3-3-3-3--3-3--3-3-3-3--3-3--3-3-3-3--3-3--3-3-3-2--2-2--2-2-2---|R
|-0--0-0--0-0-0-0--0-0--0-0-0-1--1-1--1-1-1-1--1-1--1-1-1-3--3-3--3-3-3-3--3-3--3-3-3---|E
|-0--0-0--0-0-0-0--0-0--0-0-0-0--0-0--0-0-0-0--0-0--0-0-0-2--2-2--2-2-2-2--2-2--2-2-2---|P
|-0--0-0--0-0-0-0--0-0--0-0-0-2--2-2--2-2-2-2--2-2--2-2-2-0--0-0--0-0-0-0--0-0--0-0-0---|E
|-2--2-2--2-2-2-2--2-2--2-2-2-3--3-3--3-3-3-3--3-3--3-3-3-0--0-0--0-0-0-0--0-0--0-0-0---|A
|-3--3-3--3-3-3-3--3-3--3-3-3-----------------------------------------------------------|T
_________________
_|2nd ending
|-2-----2-0----2-|
|-3-----3-1----3-|
|-2-----2-0----2-|
|-0-----0-2----0-|
|-0-----0-3----0-|
|----------------|

|-3--3-3--3-3-3-3--3-3--3-3-3-3--3-3--3-3-3-3-2-0-2-3-2-0-2-|
|-0--0-0--0-0-0-1--1-1--1-1-1-1--1-1--1-1-1-3-3-3-3-3-3-3-3-|
|-0--0-0--0-0-0-0--0-0--0-0-0-2--2-2--2-2-2-2-2-2-2-2-2-2-2-|Repeat 1x
|-0--0-0--0-0-0-2--2-2--2-2-2-2--2-2--2-2-2-0-0-0-0-0-0-0-0-|
|-2--2-2--2-2-2-3--3-3--3-3-3-0--0-0--0-0-0-0-0-0-0-0-0-0-0-|
|-3--3-3--3-3-3---------------------------------------------|


|---3-----3-----3---3-----3-----3---3-----3-----3---3-----2-----2-|
|-----0-----0---------1-----1---------1-----1---------3-----3-----|
|-----------------------------------------------------------------|
|---------------------------------2-----2-----2---0-----0-----0---|Repeat 1x
|-----------------3-----3-----3-----------------------------------|
|-3-----3-----3---------------------------------------------------|

|-3--------3--------3--------2-------|
|-0--------1--------1--------3-------|
|-0--------0--------2--------2-------|Repeat 1x
|-0--------2--------2--------0-------|
|-2--------3--------0--------0-------|
|-3----------------------------------|

|-2-2-2-2-2-2-2-2-|
|-3-3-3-3-3-3-3-3-|
|-2-2-2-2-2-2-2-2-|
|-0-0-0-0-0-0-0-0-|
|-0-0-0-0-0-0-0-0-|
|-----------------|


|-3--3-3--3-3-3-3--3-3--3-3-3-3--3-3--3-3-3-3-2-0-2-3-2-0-2-|
|-0--0-0--0-0-0-1--1-1--1-1-1-1--1-1--1-1-1-3-3-3-3-3-3-3-3-|
|-0--0-0--0-0-0-0--0-0--0-0-0-2--2-2--2-2-2-2-2-2-2-2-2-2-2-|Repeat 1x
|-0--0-0--0-0-0-2--2-2--2-2-2-2--2-2--2-2-2-0-0-0-0-0-0-0-0-|
|-2--2-2--2-2-2-3--3-3--3-3-3-0--0-0--0-0-0-0-0-0-0-0-0-0-0-|
|-3--3-3--3-3-3---------------------------------------------|

|-3--3-3--3-3-3-3--3-3--3-3-3-|
|-0--0-0--0-0-0-1--1-1--1-1-1-|
|-0--0-0--0-0-0-0--0-0--0-0-0-|Repeat 3x
|-0--0-0--0-0-0-2--2-2--2-2-2-|
|-2--2-2--2-2-2-3--3-3--3-3-3-|
|-3--3-3--3-3-3---------------|

|-3--3-3--3-3-3-2--2-2--2-2-2-|
|-3--3-3--3-3-3-3--3-3--3-3-3-|
|-2--2-2--2-2-2-2--2-2--2-2-2-|
|-0--0-0--0-0-0-0--0-0--0-0-0-|
|-0--0-0--0-0-0-0--0-0--0-0-0-|
|-----------------------------|

|-3--3-3--3-3-3-3--3-3--3-3-3-|
|-0--0-0--0-0-0-1--1-1--1-1-1-|
|-0--0-0--0-0-0-0--0-0--0-0-0-|Repeat 3x
|-0--0-0--0-0-0-2--2-2--2-2-2-|
|-2--2-2--2-2-2-3--3-3--3-3-3-|
|-3--3-3--3-3-3---------------|

|-3--3-3--3-3-3-2--2-2--2-2-2-|
|-3--3-3--3-3-3-3--3-3--3-3-3-|
|-2--2-2--2-2-2-2--2-2--2-2-2-|
|-0--0-0--0-0-0-0--0-0--0-0-0-|
|-0--0-0--0-0-0-0--0-0--0-0-0-|
|-----------------------------|


|-3--3-3--3-3-3-3--3-3--3-3-3-3--3-3--3-3-3-3-2-0-2-3-2-0-2-|
|-0--0-0--0-0-0-1--1-1--1-1-1-1--1-1--1-1-1-3-3-3-3-3-3-3-3-|
|-0--0-0--0-0-0-0--0-0--0-0-0-2--2-2--2-2-2-2-2-2-2-2-2-2-2-|Repeat 1x
|-0--0-0--0-0-0-2--2-2--2-2-2-2--2-2--2-2-2-0-0-0-0-0-0-0-0-|
|-2--2-2--2-2-2-3--3-3--3-3-3-0--0-0--0-0-0-0-0-0-0-0-0-0-0-|
|-3--3-3--3-3-3---------------------------------------------|


..........................................................____________________________
_________________________________________________________|1st ending
|-3--3-3--3-3-3-3--3-3--3-3-3-3--3-3--3-3-3-3--3-3--3-3-3-3--3-3--3-3-3-2--2-2--2-2-2---|R
|-0--0-0--0-0-0-0--0-0--0-0-0-1--1-1--1-1-1-1--1-1--1-1-1-3--3-3--3-3-3-3--3-3--3-3-3---|E
|-0--0-0--0-0-0-0--0-0--0-0-0-0--0-0--0-0-0-0--0-0--0-0-0-2--2-2--2-2-2-2--2-2--2-2-2---|P
|-0--0-0--0-0-0-0--0-0--0-0-0-2--2-2--2-2-2-2--2-2--2-2-2-0--0-0--0-0-0-0--0-0--0-0-0---|E
|-2--2-2--2-2-2-2--2-2--2-2-2-3--3-3--3-3-3-3--3-3--3-3-3-0--0-0--0-0-0-0--0-0--0-0-0---|A
|-3--3-3--3-3-3-3--3-3--3-3-3-----------------------------------------------------------|T
_________________
_|2nd ending
|-2-----2-0----2-|
|-3-----3-1----3-|
|-2-----2-0----2-|
|-0-----0-2----0-|
|-0-----0-3----0-|
|----------------|


..........................................................____________________________
_________________________________________________________|1st ending
|-3--3-3--3-3-3-3--3-3--3-3-3-3--3-3--3-3-3-3--3-3--3-3-3-3--3-3--3-3-3-2--2-2--2-2-2---|R
|-0--0-0--0-0-0-0--0-0--0-0-0-1--1-1--1-1-1-1--1-1--1-1-1-3--3-3--3-3-3-3--3-3--3-3-3---|E
|-0--0-0--0-0-0-0--0-0--0-0-0-0--0-0--0-0-0-0--0-0--0-0-0-2--2-2--2-2-2-2--2-2--2-2-2---|P
|-0--0-0--0-0-0-0--0-0--0-0-0-2--2-2--2-2-2-2--2-2--2-2-2-0--0-0--0-0-0-0--0-0--0-0-0---|E
|-2--2-2--2-2-2-2--2-2--2-2-2-3--3-3--3-3-3-3--3-3--3-3-3-0--0-0--0-0-0-0--0-0--0-0-0---|A
|-3--3-3--3-3-3-3--3-3--3-3-3-----------------------------------------------------------|T
_________________
_|2nd ending
|-2-----2-0----2-|
|-3-----3-1----3-|
|-2-----2-0----2-|
|-0-----0-2----0-|
|-0-----0-3----0-|
|----------------|


|-3--3-3--3-3-3-3--3-3--3-3-3-3--3-3--3-3-3-3-2-0-2-3-2-0-2-|
|-0--0-0--0-0-0-1--1-1--1-1-1-1--1-1--1-1-1-3-3-3-3-3-3-3-3-|
|-0--0-0--0-0-0-0--0-0--0-0-0-2--2-2--2-2-2-2-2-2-2-2-2-2-2-|Repeat 1x
|-0--0-0--0-0-0-2--2-2--2-2-2-2--2-2--2-2-2-0-0-0-0-0-0-0-0-|
|-2--2-2--2-2-2-3--3-3--3-3-3-0--0-0--0-0-0-0-0-0-0-0-0-0-0-|
|-3--3-3--3-3-3---------------------------------------------|

|-3-2-0-2-3-2-0-2-3--------|
|-3-3-3-3-3-3-3-3-0--------|
|-2-2-2-2-2-2-2-2-0--------|
|-0-0-0-0-0-0-0-0-0--------|
|-0-0-0-0-0-0-0-0-2--------|
|-----------------3--------|
Tap to rate this tab
# A B C D E F G H I J K L M N O P Q R S T U V W X Y Z