Song name
# A B C D E F G H I J K L M N O P Q R S T U V W X Y Z

Misc Unsigned Bands - An Everyday Occurance - Happy Pants tab

Hey guys I'm the guitarist from An Everyday Occurance and I'm here to tab the official 
haha wow im talking like i matter.

Intro(x8)
e|----------------------|
B|-15-15-15-15-15-15-15-|
G|-14-14-14-13-13-13-13-|
D|----------------------|
A|----------------------|
E|----------------------|

Verse(x2)
e|--------------------------------|
B|--------------------------------|
G|-7~-7-7-7-7-7-7-7-7-7-7-7-7-7-7-|
D|-7~-7-7-7-7-7-7-7-7-7-7-7-7-7-7-|
A|-5~-5-5-5-5-5-5-5-5-5-5-5-5-5-5-|
E|--------------------------------|
      * * * * * *

e|--------------------------------|
B|--------------------------------|
G|--------------------------------|
D|-5~-5-5-5-5-5-5-5-5-5-5-5-5-5-5-|
A|-5~-5-5-5-5-5-5-5-5-5-5-5-5-5-5-|
E|-3~-3-3-3-3-3-3-3-3-3-3-3-3-3-3-|
      * * * * * *

e|--------------------------------|
B|--------------------------------|
G|--------------------------------|
D|-9~-9-9-9-9-9-9-9-9-9-9-9-9-9-9-|
A|-9~-9-9-9-9-9-9-9-9-9-9-9-9-9-9-|
E|-7~-7-7-7-7-7-7-7-7-7-7-7-7-7-7-|
      * * * * * *

e|--------------------------------|
B|--------------------------------|
G|--------------------------------|
D|-7~-7-7-7-7-7-7-7-7-7-7-7-7-7-7-|
A|-7~-7-7-7-7-7-7-7-7-7-7-7-7-7-7-|
E|-5~-5-5-5-5-5-5-5-5-5-5-5-5-5-5-|

Pre-Chorus(x2)
e|-------------------------------------------------|
B|-------------------------------------------------|
G|-------------------------------------------------|
D|-12-12-12-12-12-12-12-12-13-13-13-13-12-12-12-12-|
A|-14-14-14-14-14-14-14-14-14-14-14-14-14-14-14-14-|
E|-------------------------------------------------|

e|-------------------------------------------------|
B|-------------------------------------------------|
G|-12-12-12-12-12-12-12-12-11-11-11-11-12-12-12-12-|
D|-12-12-12-12-12-12-12-12-12-12-12-12-12-12-12-12-|
A|-10-10-10-10-10-10-10-10-------------------------|
E|-------------------------------------------------|

First Chorus(x8)
e|-----2-|
B|---3---|
G|-2-----|
D|-------|
A|-------|
E|-------|

Intro(x4)
Verse(x2)
Pre-Chorus(x2)

Bridge(x1)
e|-------------------------------------------------|
B|-------------------------------------------------|
G|-14-14-14-14-14-14-14-14-16-16-16-16-16-16-16-16-|
D|-------------------------------------------------|
A|-------------------------------------------------|
E|-------------------------------------------------|

e|-----------------------------------------------------|
B|-----------------------------------------------------|
G|-18-18-18-18-18-18-18-18-19-19-19-19-19-19-19-19-21~-|
D|-----------------------------------------------------|
A|-----------------------------------------------------|
E|-----------------------------------------------------|

Second Chorus(x1)
e|-----------------------------------------------------------------|
B|-----------------------------------------------------------------|
G|-7-7-7-7-7-7-7-7-------------------------------------------------|
D|-7-7-7-7-7-7-7-7-5-5-5-5-5-5-5-5-9-9-9-9-9-9-9-9-7-7-7-7-7-7-7-7-|
A|-5-5-5-5-5-5-5-5-5-5-5-5-5-5-5-5-9-9-9-9-9-9-9-9-7-7-7-7-7-7-7-7-|
E|-----------------3-3-3-3-3-3-3-3-7-7-7-7-7-7-7-7-5-5-5-5-5-5-5-5-|

e|-----------------------------------------------------------------|
B|-----------------------------------------------------------------|
G|-7-7-7-7-7-7-7-7-------------------------------------------------|
D|-7-7-7-7-7-7-7-7-5-5-5-5-5-5-5-5-9-9-9-9-9-9-9-9-7---7---7-------|
A|-5-5-5-5-5-5-5-5-5-5-5-5-5-5-5-5-9-9-9-9-9-9-9-9-7---7---7-------|
E|-----------------3-3-3-3-3-3-3-3-7-7-7-7-7-7-7-7-5---5---5-------|

Solo(x1)
e|-------------------------------------------------------|
B|-17b17-15-15-15-15-17b17-15-15-15-15-17b17-15-15-15-15-|
G|-------------------------------------------------------|
D|-------------------------------------------------------|
A|-------------------------------------------------------|
E|-------------------------------------------------------|

e|-17-17-17-15-15-15-15-15-17b17-15-15-15-15-------------------|
B|-------------------------------------------17b17-15-15-15-15-|
G|-------------------------------------------------------------|
D|-------------------------------------------------------------|
A|-------------------------------------------------------------|
E|-------------------------------------------------------------|

e|------------------------------|
B|-17-17-17-17-19-19-19-19-20b~-|
G|------------------------------|
D|------------------------------|
A|------------------------------|
E|------------------------------|

e|-------7---------7---------7---------7---|
B|-7b7-5---5-7b7-5---5-7b7-5---5-7b7-5---5-|
G|-----------------------------------------|
D|-----------------------------------------|
A|-----------------------------------------|
E|-----------------------------------------|

e|-------------------------------------|
B|-7-7-7-7-7-7-7-7-9-9-9-9-10-10-10-10-|
G|-------------------------------------|
D|-------------------------------------|
A|-------------------------------------|
E|-------------------------------------|

Final Chorus(x2)
e|---------------------------------|
B|---------------------------------|
G|-7-7-7-7-------------------------|
D|-7-7-7-7-5-5-5-5-9-9-9-9-7-7-7-7-|
A|-5-5-5-5-5-5-5-5-9-9-9-9-7-7-7-7-|
E|---------3-3-3-3-7-7-7-7-5-5-5-5-|

e|---------------------------------|
B|---------------------------------|
G|-7-7-7-7-------------------------|
D|-7-7-7-7-5-5-5-5-9-9-9-9-7-7-7-7-|
A|-5-5-5-5-5-5-5-5-9-9-9-9-7-7-7-7-|
E|---------3-3-3-3-7-7-7-7-5-5-5-5-|

e|---------------------------------|
B|---------------------------------|
G|-7-7-7-7-------------------------|
D|-7-7-7-7-5-5-5-5-9-9-9-9-7-7-7-7-|
A|-5-5-5-5-5-5-5-5-9-9-9-9-7-7-7-7-|
E|---------3-3-3-3-7-7-7-7-5-5-5-5-|

e|---------------------------------|
B|---------------------------------|
G|-7-7-7-7-------------------------|
D|-7-7-7-7-5-5-5-5-9---9---7---7---|
A|-5-5-5-5-5-5-5-5-9---9---7---7---|
E|---------3-3-3-3-7---7---5---5---|

Outro(x1)
e|----------------------|
B|-15-15-15-15-15-15-15-|
G|-14-14-14-13-13-13-13-|
D|----------------------|
A|----------------------|
E|----------------------|

e|----------------------|
B|-15-15-15-15-15-15-15-|
G|-14-14-14-13-13-13-13-|
D|----------------------|
A|----------------------|
E|----------------------|

e|----------------------|
B|-15-15-15-15-15-15-15-|
G|-14-14-14-13-13-13-13-|
D|----------------------|
A|----------------------|
E|----------------------|

e|-----|
B|-15~-|
G|-14~-|
D|-----|
A|-----|
E|-----|

The End.


If you're looking at this.  You're amazing.

~Melissa
Tap to rate this tab
 
# A B C D E F G H I J K L M N O P Q R S T U V W X Y Z